Loading
อันดับในชาร์ท: 0
%  89 5 6
Vote 
เพลงอินดี้ ซึ่งศิลปินอิสระได้สร้างสรรค์ขึ้นนี้ แต่ละเพลงมีลิขสิทธิ์ ห้ามคัดลอก ดัดแปลง หรือ นำไปใช้โดยไม่ได้รับอนุญาตเด็ดขาด หากละเมิดจะถูกดำเนินการทางกฎหมายอย่างถึงที่สุด ทั้งนี้ทางเว็บยินดีประสานและติดต่อระหว่างผู้ขออนุญาต และเจ้าของลิขสิทธิ์ ส่วนจะได้รับอนุญาตหรือไม่แล้วแต่เจ้าของลิขสิทธิ์
อัพโหลดคลิปเพลงนี้ที่คุณ ร้อง/เล่น ด้วยตัวคุณเอง ได้แล้ววันนี้
ระหว่างการทดสอบระบบหากพบข้อผิดพลาด กรุณาแจ้งที่นี่

เพลงอินดี้ วันปวดใจ

เอ็น-แค็ป

คำร้อง : เอ็น-แค็ป
ทำนอง : เอ็น-แค็ป
เรียบเรียง : เอ็น-แค็ป
กี่วันคืนจะผ่านมา กี่เวลาจะผ่านไป มีเรื่องราวมากมาย
ผ่านและพ้นเข้ามา แต่ไม่ลืมเรื่องเธอ เมื่อได้พบได้เจอ
ได้เห็นหน้า คิดถึงวันเวลาที่เราอยู่ด้วยกัน
ก็หนึ่งปีมีหนึ่งครั้ง มันอาจเป็นวันที่แสนดี ที่หลยาคนเค้ามี
ความสุขกัน แต่ว่าฉันยังจมอยู่ที่เก่า ยังไม่เรื่องเขา
กับเธอวันนั้น มันทรมานเมื่อวันนี้มาถึง
*วันแห่งความรักของใครๆ เป็นวันปวดใจของคนอย่างฉัน
เมื่อเขาคนนั้นมาเอาเธอไปลับตา
เป็นวันบอกรักใช่ไหม แต่ทำไมเธอมาบอกลา
มีดอกไม้เธอถือมา มอนให้ฉันทั้งน้ำตา วาเลนไทน์
ก็หนึ่งปีมีหนึ่งหน ก็สบสนในหัวใจ คิดเรื่องเดิมอยู่ร่ำไป
ไม่เปลี่ยนแปลง ช็อกโกแลต ยังได้อยู่ กุหลาบชมพู
กุหลาบแดง มันยังทิ่มแทง ตอกย้ำทุกครั้งที่ได้มา
ซ้ำ*
Solo
ซ้ำ*
ส่งเพลงนี้ให้เพื่อน
วันที่โพสต์ : 12 ก.พ.2549,21:35น. 125.24.72.149
จำนวนผู้ชม : 5840 คน
แสดงความคิดเห็น : 16 ครั้ง
โพสต์โดย


จาก: น๊กเกอร์
เข้าร่วม: 14 ปีก่อน
เพลง: 28
โพสต์: 0
เพลงแนะนำ
เพลงฮิต
เลือกแสดงเฉพาะ :

  • เปอละมิน
    Guest
  • 13 ก.พ.2549,02:40น.
    แปลกๆมั๊ย
  • 13 ก.พ.2549,11:36น.
    จริงๆเลยครับ วาเลไทน์ปี47 ผมถูกบอกเลิกครับ

    สำหรับเพลง เพลงนี้กลองแปลกมาก ส่วนกีต้าร์เท่สุดๆ
  • 13 ก.พ.2549,12:54น.
    intro  Dsus2 /  Dsus2 on F  /  Em7  /  Asus4 /
    D Bm Em A D
    กี่วันคืนจะผ่านมา กี่เวลาจะผ่านไป มีเรื่องราวมากมาย ผ่านและพ้นเข้ามา
    F#m Bm F#m Bm Em A
    แต่ไม่ลืม.....เรื่องเธอ เมื่อได้พบได้เจอได้เห็นหน้า คิดถึงวันเวลาที่เราอยู่ด้วยกัน

    D Bm Em A D
    ก็หนึ่งปีมีหนึ่งครั้ง มันอาจเป็นวันที่แสนดี ที่หลายคนเค้ามีความสุขกัน
    F#m Bm F#m Bm [สไลด์] Em A D
    แต่ว่าฉันยังจมอยู่ที่เก่า ยังไม่ลืมเรื่องเขากับเธอวันนั้น........ มันทรมานเมื่อวันนี้มาถึง

    G A F#m Bm
    * วันแห่งความรักของใครๆ เป็นวันปวดใจของคนอย่างฉัน
    Em A D
    เมื่อเขาคนนั้นมาเอาเธอไปลับตา
    G A F#m Bm
    เป็นวันบอกรักใช่ไหม แต่ทำไมเธอมาบอกลา...............
    Em A D
    มีดอกไม้เธอถือมา... มอบให้ฉันทั้งน้ำตา วาเลนไทน์

    D Bm Em A D
    ก็หนึ่งปีมีหนึ่งหน ก็สบสนในหัวใจ คิดเรื่องเดิมอยู่ร่ำไปไม่เปลี่ยนแปลง
    F#m Bm F#m Bm Em A D
    ช็อกโกแลต ยังได้อยู่ กุหลาบชมพูกุหลาบแดง มันยังทิ่มแทง ตอกย้ำทุกครั้งที่ได้มา

    (ซ้ำ * )
    Solo / G A / F#m Bm / Em A / D / G A / F#m Bm / Em /A /
    (ซ้ำ * )
    จบแบบเดียวกับintro
  • unknow
    Guest
  • 13 ก.พ.2549,13:44น.
    แก้
    intro
    / Dsus2 / Dsus2 on F
    1-----------------0----------0----------------------------0------------0-------------------
    2-----------3-------3----------3-----------------3----------3------------3---------------
    3--------2----2---------2----------------------2-----2------------2------------------------
    4----0-------------------------------------3-------------------------------------------------
    5-----------------------------------------------------------------------------------------------
    6-----------------------------------------------------------------------------------------------

    / Dsus2 on E / Bb Asus4 / D Dsus4 D /
    1-----------------0---------0--------------------0-------------0-------------3h2-------0---2----
    2-----------3-------3---------3--------------3----3-------3----3------------------3---------------
    3--------0----0---------0-----------------------------------------------------------------------------
    4-----2-------------------------------------8------------7----------------0--------------------------
    5-------------------------------------------------------------------------------------------------------
    6---------------------------------------------------------------------------------------------------------

    ถ้าจะเล่นคอร์ดก็เล่นแบบนี้
    / Dsus2 / Dsus2 on F / Dsus2 on E / Bb Asus4 /D Dsus4 D /

    ส่วนโซโล่เอาไว้ก่อน ท่าทางจะยากแกะไม่ได้ มันยาก
  • 13 ก.พ.2549,13:50น.
    ท่อนจบ เบสมันมากกว่าท่อนอินโทรนะครับ แกะกันเอาเอง ขี้เกียจแกะแล้ว
  • ***
    Guest
  • 13 ก.พ.2549,20:47น.
    ราชาเพลงเศร้า ขนาดวันแห่งความรักยังเศร้าได้
    เยี่ยมมากพี่
  • น้องนําฝน
    Guest
  • 13 ก.พ.2549,22:57น.
    พี่แม็กร้องเพลงซึ้งดีนะคับ ชชอบมาก เท่จังน่ารักด้วย
    อยากได้รูปเก็บไว้จัง ได้ป่าวคะพี่แม็ก
  • ตูน
    Guest
  • 15 ก.พ.2549,11:29น.
    ทำปลายเสียงสั่นๆ เหมือนหนาวเลยคะ
    แต่นำเสียงเท่ดีคะ
    ตอนแรกนึกว่าพี่นุกเกอร์ร้องซะอีก
    โดยรวมเพราะดีคะ
    เพลงนี้แต่งต้อนรับ วาเลนไทม์ใช่ไหมคะ
  • หมวย
    Guest
  • 16 ก.พ.2549,10:30น.
    ใช้ได้น่ะค่ะ เอาใจช่วยค่ะ  
  • แนะนำ
    Guest
  • 16 ก.พ.2549,17:12น.
    คะแนนเต็ม 10 ผมให้ 5
  • เด็กพะเยา
    Guest
  • 16 ก.พ.2549,20:53น.
    ชอบอ่าคับเพลงนี้อิอิ 
  • แจ๊ก สามเสน
    Guest
  • 19 ก.พ.2549,19:28น.
    นี่เสียงพี่นุ๊กเกอร์ร้องเองไม่ใช่เหรอ

    ผมฟังเพลงของพี่เค้าเกือบทุกวันจำเสียงได้

    แต่เพลงนี้ผมไม่ค่อยสนเนื้อร้องหรอก ผมสนกลองกับเบส แล้วก็กีต้าร์ตอนรูดสายครับ
  • แค่หลงเข้ามา
    Guest
  • 4 ม.ค.2550,23:12น.
    ก้อโอ นะ มั้ง
1

ขอเชิญร่วมแสดงความคิดเห็นครับ

คลิกที่รูป เพื่อแทรกรูปลงในข้อความ
  • Member :
    username
    password
  • Not a member :
    name
    email