Loading
อันดับในชาร์ท: 0
%  89 7 4
Vote 
เพลงอินดี้ ซึ่งศิลปินอิสระได้สร้างสรรค์ขึ้นนี้ แต่ละเพลงมีลิขสิทธิ์ ห้ามคัดลอก ดัดแปลง หรือ นำไปใช้โดยไม่ได้รับอนุญาตเด็ดขาด หากละเมิดจะถูกดำเนินการทางกฎหมายอย่างถึงที่สุด ทั้งนี้ทางเว็บยินดีประสานและติดต่อระหว่างผู้ขออนุญาต และเจ้าของลิขสิทธิ์ ส่วนจะได้รับอนุญาตหรือไม่แล้วแต่เจ้าของลิขสิทธิ์
อัพโหลดคลิปเพลงนี้ที่คุณ ร้อง/เล่น ด้วยตัวคุณเอง ได้แล้ววันนี้
ระหว่างการทดสอบระบบหากพบข้อผิดพลาด กรุณาแจ้งที่นี่

เพลงอินดี้ เก็เรื่องร้ายไว้ที่ฉัน เก็บฝันไว้ที่เธอ

สองบี

คำร้อง : สองบี
ทำนอง : สองบี
เรียบเรียง : สองบี

ถ้าใครชอบจะพิมพ์ให้
ถ้าใครชอบจะพิมพ์ให้
ถ้าใครชอบจะพิมพ์ให้
ถ้าใครชอบจะพิมพ์ให้
ถ้าใครชอบจะพิมพ์ให้
ถ้าใครชอบจะพิมพ์ให้
ถ้าใครชอบจะพิมพ์ให้
ถ้าใครชอบจะพิมพ์ให้
ถ้าใครชอบจะพิมพ์ให้
ถ้าใครชอบจะพิมพ์ให้
ถ้าใครชอบจะพิมพ์ให้
ส่งเพลงนี้ให้เพื่อน
วันที่โพสต์ : 10 ต.ค.2549,08:29น. 172.30.43.209, 61.19.198.186
จำนวนผู้ชม : 4405 คน
แสดงความคิดเห็น : 48 ครั้ง
โพสต์โดย


จาก: ???
เข้าร่วม: 13 ปีก่อน
เพลง: 3
โพสต์: 0
เพลงแนะนำ
เพลงฮิต
เลือกแสดงเฉพาะ :

  • 10 ต.ค.2549,08:34น.
    intro ( 2 times )
    D:-------------------------------------------------------------------------------
    A:-------------------------------------------------------------------------------
    F:-------------------------------------------------------------------------------
    C:--2-2-2-2--0-2-2-0-2-0-2--0-2-2-0-2-0-2-10-5-5-10-5--9-10-10-9-10-5-10
    G:--2-2-2-2--0-2-2-0-2-0-2--0-2-2-0-2-0-2-10-5-5-10-5--9-10-10-9-10-5-10 ( 2 times )
    C:--2-2-2-2--0-2-2-0-2-0-2--0-2-2-0-2-0-2--10-5-5-10-5--9-10-10-9-10-5-10
    x x x x
    D:-------------------------------------------------------------------------------
    A:-------------------------------------------------------------------------------
    F:-------------------------------------------------------------------------------
    C:--0-2-0-2-0-2-0-2-0-2-0-2-0-2-0-2----------------------------------
    G:--0-2-0-2-0-2-0-2-0-2-0-2-0-2-0-2----------------------------------
    C:--0-2-0-2-0-2-0-2-0-2-0-2-0-2-0-2----------------------------------

    ยังไม่เจอหนทาง,ทางที่ใจต้องไป
    D:-------------------------------------------------------------------------------
    A:-------------------------------------------------------------------------------
    F:-------------------------------------------------------------------------------
    C:--2---0---10---12---------------------------------------------------------
    G:--2---0---10---12---------------------------------------------------------
    C:--2---0---10---12---------------------------------------------------------

    มันคืบคลาน
    D:-------------------------------------------------------------------------------
    A:-------------------------------------------------------------------------------
    F:-------------------------------------------------------------------------------
    C:-0-2-2-2-2-2-2-2-2-0-2-2-2-2-2-2-2-2-9-9-9-9-9-9-9-9-10-10-10
    G:-0-2-2-2-2-2-2-2-2-0-2-2-2-2-2-2-2-2-9-9-9-9-9-9-9-9-10-10-10
    C:-0-2-2-2-2-2-2-2-2-0-2-2-2-2-2-2-2-2-9-9-9-9-9-9-9-9-10-10-10
    x x x x x x x x x x x x x x x x x x x x x x x x x x x x x x x

    ต้องไปสู่แสงสว่าง
    D:-------------------------------------------------------------------------------
    A:-------------------------------------------------------------------------------
    F:-------------------------------------------------------------------------------
    C:--2----10-12---------------------------------------------------------------
    G:--2----10-10---------------------------------------------------------------
    C:--2----10-10---------------------------------------------------------------

    หรือความมืดมน
    D:-------------------------------------------------------------------------------
    A:-------------------------------------------------------------------------------
    F:-------------------------------------------------------------------------------
    C:--2-2--2-2--2-2--2-2-2-2--2--2--2--2-2--2-2--0-0-0-0
    G:--2-2--2-2--2-2--2-2-2-2--2--2--2--2-2--2-2--0-0-0-0 ( 2 times )
    C:--2-2--2-2--2-2-2-2--2--2--2--2-2--2-2--2-2--0-0-0-0
    x x x x x x x x x x x x x x x x x x x x x x x x x x x x x

    มันอยู่ที่ไหน
    D:-------------------------------------------------------------------------
    A:-------------------------------------------------------------------------
    F:--------------------------------------------------------------------------
    C:---2-0-2-0-2-0--2-0-2-0-2-0----------
    G:---2-0-2-0-2-0--2-0-2-0-2-0---------- ( 2 times )
    C:---2-0-2-0-2-0--2-0-2-0-2-0----------

    D:-------------------------------------------------------------------------
    A:-------------------------------------------------------------------------
    F:-------------------------------------------------------------- ( มันคืบคลานเข้ามา อย่างช้าๆ )
    C:---10-5-10-5-10-5--10-5-10-5-10-5 -10-10-10-10-10-10-10
    G:---10-5-10-5-10-5--10-5-10-5-10-5 ( 2 times ) -10-10-10-10-10-10-10
    C:---10-5-10-5-10-5--10-5-10-5-10-5 -10-10-10-10-10-10-10

    จะทำอะไร
    D:-------------------------------------------------------------------------------
    A:-------------------------------------------------------------------------------
    F:-------------------------------------------------------------------------------
    C:--0-2-0-2-0-2-0-2-0-2-0-2-0-2-0-2----------------------------------
    G:--0-2-0-2-0-2-0-2-0-2-0-2-0-2-0-2----------------------------------
    C:--0-2-0-2-0-2-0-2-0-2-0-2-0-2-0-2----------------------------------
    ((ขอคอร์ดกีต้าร์))
  • 10 ต.ค.2549,08:35น.
    intro ( 2 times )
    D:-------------------------------------------------------------------------------
    A:-------------------------------------------------------------------------------
    F:-------------------------------------------------------------------------------
    C:--2-2-2-2--0-2-2-0-2-0-2--0-2-2-0-2-0-2-10-5-5-10-5--9-10-10-9-10-5-10
    G:--2-2-2-2--0-2-2-0-2-0-2--0-2-2-0-2-0-2-10-5-5-10-5--9-10-10-9-10-5-10 ( 2 times )
    C:--2-2-2-2--0-2-2-0-2-0-2--0-2-2-0-2-0-2--10-5-5-10-5--9-10-10-9-10-5-10
    x x x x
    D:-------------------------------------------------------------------------------
    A:-------------------------------------------------------------------------------
    F:-------------------------------------------------------------------------------
    C:--0-2-0-2-0-2-0-2-0-2-0-2-0-2-0-2----------------------------------
    G:--0-2-0-2-0-2-0-2-0-2-0-2-0-2-0-2----------------------------------
    C:--0-2-0-2-0-2-0-2-0-2-0-2-0-2-0-2----------------------------------

    D:-------------------------------------------------------------------------------
    A:-------------------------------------------------------------------------------
    F:-------------------------------------------------------------------------------
    C:--2---0---10---12---------------------------------------------------------
    G:--2---0---10---12---------------------------------------------------------
    C:--2---0---10---12---------------------------------------------------------


    D:-------------------------------------------------------------------------------
    A:-------------------------------------------------------------------------------
    F:-------------------------------------------------------------------------------
    C:-0-2-2-2-2-2-2-2-2-0-2-2-2-2-2-2-2-2-9-9-9-9-9-9-9-9-10-10-10
    G:-0-2-2-2-2-2-2-2-2-0-2-2-2-2-2-2-2-2-9-9-9-9-9-9-9-9-10-10-10
    C:-0-2-2-2-2-2-2-2-2-0-2-2-2-2-2-2-2-2-9-9-9-9-9-9-9-9-10-10-10
    x x x x x x x x x x x x x x x x x x x x x x x x x x x x x x x

    D:-------------------------------------------------------------------------------
    A:-------------------------------------------------------------------------------
    F:-------------------------------------------------------------------------------
    C:--2----10-12---------------------------------------------------------------
    G:--2----10-10---------------------------------------------------------------
    C:--2----10-10---------------------------------------------------------------

    D:-------------------------------------------------------------------------------
    A:-------------------------------------------------------------------------------
    F:-------------------------------------------------------------------------------
    C:--2-2--2-2--2-2--2-2-2-2--2--2--2--2-2--2-2--0-0-0-0
    G:--2-2--2-2--2-2--2-2-2-2--2--2--2--2-2--2-2--0-0-0-0 ( 2 times )
    C:--2-2--2-2--2-2-2-2--2--2--2--2-2--2-2--2-2--0-0-0-0
    x x x x x x x x x x x x x x x x x x x x x x x x x x x x x


    D:-------------------------------------------------------------------------
    A:-------------------------------------------------------------------------
    F:--------------------------------------------------------------------------
    C:---2-0-2-0-2-0--2-0-2-0-2-0----------
    G:---2-0-2-0-2-0--2-0-2-0-2-0---------- ( 2 times )
    C:---2-0-2-0-2-0--2-0-2-0-2-0----------

    D:-------------------------------------------------------------------------
    A:-------------------------------------------------------------------------
    F:--------------------------------------------------------------
    C:---10-5-10-5-10-5--10-5-10-5-10-5 -10-10-10-10-10-10-10
    G:---10-5-10-5-10-5--10-5-10-5-10-5 ( 2 times ) -10-10-10-10-10-10-10
    C:---10-5-10-5-10-5--10-5-10-5-10-5 -10-10-10-10-10-10-10

    D:-------------------------------------------------------------------------------
    A:-------------------------------------------------------------------------------
    F:-------------------------------------------------------------------------------
    C:--0-2-0-2-0-2-0-2-0-2-0-2-0-2-0-2----------------------------------
    G:--0-2-0-2-0-2-0-2-0-2-0-2-0-2-0-2----------------------------------
    C:--0-2-0-2-0-2-0-2-0-2-0-2-0-2-0-2----------------------------------
  • โชว์คื่อ
    Guest
  • 10 ต.ค.2549,08:42น.
                      D  A                   Bm   A
    เธอแหลงให้รอ 4 ปี ให้เธอเรียนจบ
    G A D
    แล้วเธอจะหล๊อบ มาพบที่เมืองลูกตอ
    G A D Bm
    ทุกๆ คำที่แหลงมา พี่ยังตั้งตาเฝ้ารอ
    G A
    และเชื่อใจ เสมอว่าเธอนั้นแคร์กัน
    D A Bm A
    พี่แลจดหมาย ของเธอทุกๆฉบับ
    G A D
    พี่คอยนั่งนับ ทุกคืนทุกวันเวลา
    G A D Bm
    รอเธอกลับ หวนคืน ที่เดิมที่เคยจากลา
    G A D
    นี่ห้าปีกว่าก็ยังไม่เห็นแม้เงา


    G A Bm
    *ไปอยู่ที่ไหน ขวัญใจพี่หลวง
    G A D
    โอ้แม่พุ่มพวง ลืมพี่หลวง แล้วม้าย
    D A
    ที่เธอยืนยันเป็นหนักเป็นหนา
    D Bm
    ว่าสี่ปีจะหวนมาใหม่
    G A
    แล้วนี่อะไร ใยเธอลืมสัญญา

    D A Bm
    **ไม่พรื้อหรอกน้อง ถ้าเธอจะลืมคนเก่า
    G A D
    เธอลืมเรื่องราวที่เธอนั้นเคยสัญญา
    G A D Bm
    เธออ้อร้อได้แนบเนียน พี่ช้ำเหลือเกินกานดา
    G A D
    โถแก้วตาอยู่ไหน ไยเธอมาลืมคำ

    (*.**)
    G A D
    โถแก้วตาอยู่ไหน ไยเธอมาลืมคำ
    G A D
    โถแก้วตาอยู่ไหน ไยเธอถึงลืมกัน
    ((ขอคอร์ดกีต้าร์))
  • ริตาร์
    Guest
  • 10 ต.ค.2549,08:44น.
    เสียงดีมาก ชอบ ๆๆๆๆๆๆๆๆๆๆ
    อยากได้คนร้องเป็นสามี
    คงสะใจแย่
    ((ขอคอร์ดกีต้าร์))
  • มอฟฟี่ โปรดิวฯ
    Guest
  • 10 ต.ค.2549,17:15น.
    เพลงเพราะมากครับผมมาโหวตให้นะครับผม
    ไงก็เข้าไปดูเพลงของพวกเราบ้างนะครับผม เข้าไปแสดง
    ความคิดเห็นหน่อยนะคำติชมด้วย พวกเราจะนำไปปรับปรุง
    แก้ไขให้ดีกว่านี้ครับผม มอฟ วงสตาย (Stay)
    ปล.เข้าไปฟังแล้วอย่าลืมแสดงความคิดเห็นด้วยนะครับผมจะขอบพระคุณอย่างยิ่ง

    เพลงวอนดาว http://musicatm.com/view.php?No=6905
    เพลงอยากบอกเธอ http://musicatm.com/view.php?No=6909
    เพลงหลอกกันทำไม http://musicatm.com/view.php?No=6897

    เข้ามาฟังดูนะครับผม
  • Benz
    Guest
  • 11 ต.ค.2549,00:32น.
    เหมือน BasherกับBody Slam รวมกันเลยง่ะ
  • นิตยา
    Guest
  • 11 ต.ค.2549,07:38น.
    ชอบมากค่ะ  ตอนทอนฮุกสนุกดี
    เพลงเนื้อหาใช้ได้
  • โชว์คื่อ
    Guest
  • 11 ต.ค.2549,09:12น.
     ขั้นเทพ  ฟังแล้วมันเจ็บจาขาดใจอยู่ตรงหน้าเธอ  
    ((ขอคอร์ดกีต้าร์))
  • noo
    Guest
  • 11 ต.ค.2549,18:41น.
    โหวดให้แล้วนะคับ...ลองฟังเพลงเพราะๆจาก วง Add Pirtch  เพลง สาวหอใน 
    ได้ที่ www.musicatm.com/view.php?No=6493
    และช่วยร่วมติชมด้วย ขอบคุณครับ
  • 12 ต.ค.2549,19:45น.
    ชอบคับ
  • Duff
    Guest
  • 12 ต.ค.2549,22:57น.
    http://musicatm.com/view.php?No=6947  
  • beerค่ะ
    Guest
  • 11 พ.ย.2549,23:58น.
    ก้อเพราะดีอ่ะน่ะ  ชอบ  อยากห้นตัวน่าคนร้องนำอ่ะ
    อยากเห้นทั่งวงเลยอ่ะ
    จะมีโอกาสด้ายเห้นป่ะ.....

    วางๆๆก้อมาคุยกานบ้างก่อดายน่ะ
  • ผู้รักในเสียงดนตรี
    Guest
  • 27 ธ.ค.2549,00:50น.
    เพราะดีอะนะ ทำต่อไป จารอฟังละกัน
  • คนฟังเน้อ
    Guest
  • 27 ธ.ค.2549,10:25น.
    เสียงเหมือนพี่ตูนเลยครับ ขอเนื้อกับคอร์ดด่วน ((ขอคอร์ดกีต้าร์))
  • mint
    Guest
  • 1 ม.ค.2550,10:21น.
    สวัสดีปีใหม่นะค่ะ ขอให้ทำต่อไปนะ สู้ๆ จารักสอง-บีตลอดไปเลย เอาเพลงใหม่มาลงด้วย
1

ขอเชิญร่วมแสดงความคิดเห็นครับ

คลิกที่รูป เพื่อแทรกรูปลงในข้อความ
  • Member :
    username
    password
  • Not a member :
    name
    email