Loading
อันดับในชาร์ท: 0
%  92 6 2
Vote 
เพลงอินดี้ ซึ่งศิลปินอิสระได้สร้างสรรค์ขึ้นนี้ แต่ละเพลงมีลิขสิทธิ์ ห้ามคัดลอก ดัดแปลง หรือ นำไปใช้โดยไม่ได้รับอนุญาตเด็ดขาด หากละเมิดจะถูกดำเนินการทางกฎหมายอย่างถึงที่สุด ทั้งนี้ทางเว็บยินดีประสานและติดต่อระหว่างผู้ขออนุญาต และเจ้าของลิขสิทธิ์ ส่วนจะได้รับอนุญาตหรือไม่แล้วแต่เจ้าของลิขสิทธิ์
อัพโหลดคลิปเพลงนี้ที่คุณ ร้อง/เล่น ด้วยตัวคุณเอง ได้แล้ววันนี้
ระหว่างการทดสอบระบบหากพบข้อผิดพลาด กรุณาแจ้งที่นี่

เพลงอินดี้ แค่ไม่เคยบอก

2-B

คำร้อง : แมว 2-B
ทำนอง : 2-B
เรียบเรียง : 2-B
ก็คบกันมาตั้งนานป่านนี้ ก็คิดว่าเธอคงเข้าใจฉันดี ก็ไม่เคยคิดผิดใจเธอคนเดียว(เลิก...)
เหม่อมองดูท้องฟ้าไม่เคยห่างจากดาว ก็เหมือนใจฉันมันติดอยู่กับเธอ
แค่เพียงไม่เจอก็ยังจะเพ้อ (จะบ้า..)
*ก็คิดว่าเธอคงจะมีเหตุผล ที่ทำให้ฉันปั่นป่วนหัวใจ
เหตุผลที่ทำให้เรา ไกลห่างกัน ไป........
**ฉันไม่ได้หลอกแค่ไม่เคยบอก..ว่ารักเธอจนหมดหัวใจ
ฉันไม่ได้เจ้าชู้เลยสุดที่รัก ก็อยากให้เธอเข้าใจฉันหน่อย
ฉันไม่ได้หลอกแค่ไม่เคยบอก..ว่ารักเธอจนหมดหัวใจ
ฉันไม่ได้เจ้าชู้เลยสุดที่รัก ก็อยากให้เข้าใจฉันหน่อย

ฟังให้ดี ฟังฉันก่อน ว่ารัก รัก รัก รัก รัก รักเธอ
ฟังฉันก่อน เธอฟังฉันหน่อย ว่า รัก รัก รัก รัก รักเธอคนเดียว
(ซ้ำ*,**,**,** Fade Out)
ส่งเพลงนี้ให้เพื่อน
วันที่โพสต์ : 1 พ.ค.2549,11:20น. 203.156.38.110
จำนวนผู้ชม : 19293 คน
แสดงความคิดเห็น : 150 ครั้ง
โพสต์โดย


จาก: ต่าย
เข้าร่วม: 13 ปีก่อน
เพลง: 5
โพสต์: 0
เพลงแนะนำ
เพลงฮิต
เลือกแสดงเฉพาะ :

  • ต่าย
    Guest
  • 16 พ.ค.2549,18:24น.
    ใส่ไปแล้วนะฮะ Kob-Fa ดูที่ Rep 22 นะฮะ 
  • Kob-Fa
    Guest
  • 17 พ.ค.2549,13:51น.
    อ้อเหรอฮะ ขอโทษด้วยนะครับที่ไม่ได้สังเกต ได้ข่าวว่าไปอัดแยกชิ้นมาไม่ใช่เหรอ 
    ลองเอามาโพสให้ฟังดิ อยากฟังมักๆๆๆๆ









  • Kob-fa
    Guest
  • 17 พ.ค.2549,19:27น.
    แล้วเพลงที่มือกลองเล่นบ่อยๆ ที่มือกลองแต่งน่ะ เมื่อไรจะออกมาเป็น demo สักทีล่ะคะ
    เพราะดีออก สิ่งที่ฉันไม่เคยได้รู้ อะไรประมาณนี้น่ะค่ะ เร็วนะค่ะ
  • เด็กศิลป์ Prem
    Guest
  • 18 พ.ค.2549,11:26น.
    เพลงมันก็เพราะแต่ติดที่ว่า คนเล่นมันหน้าตาขี้เหร่ไปหน่อย
  • หมอ X .Com
    Guest
  • 18 พ.ค.2549,12:54น.
    ไม่สนุกเลย.............
    วงอะไรวะ.. คนร้องหน้าตา
    ตังมะเก็กไปหน่อย.....มากเลย
    เพลงอะไรไม่เคยได้ยินเลย..
  • ต่าย
    Guest
  • 18 พ.ค.2549,17:36น.
    Too... Kob-fa นะฮะ ก็เพลงที่แต่งผมแต่งเองก็มีชื่อว่า "ฉันได้รู้ในสิ่งที่ฉันไม่รู้" นะฮะ สำหรับเพลงนี้ก็คงจะยังไม่ถึงคิวอ่ะนะฮะ ก็คงรอๆกันไปก่อนนะฮะ เพลงนี้ก็ลงมือแต่ทั้งเนื้อร้องทำนองเรียบเรียงเองหมดเลยฮะ เพลงนี้ก็มาจากประสบการณ์ของผมอีกด้านหนึ่งเหมือนกันนะฮะ ยังไงก็ขอบคุณ Kob-fa ด้วนะฮะที่ถามมาตลอด แล้วตกลง Kob-fa เป็นใครหรอฮะ รู้เพลงที่ผมแต่ได้ไงหรอฮะ 
  • free_indy
    Guest
  • 19 พ.ค.2549,19:13น.
    คนร้องคงเหนื่อยน่าดูนะ
    เพราะว่าฟังดูแล้วเสียงค่อนข้างจะชัดเจน
    ในเรื่องที่หลบเสียงได้ไม่ค่อยเนียน
    แล้วก็ฟังดูแปกๆ อาจเพราะทำ sound ได้ไม่ค่อยดีด้วยอ่ะ
    ก็พยายามต่อนะคับ เปงกะลังใจให้เสมอ สู้ๆ
  • Mint
    Guest
  • 20 พ.ค.2549,14:47น.
    ไม่มีเพลงอื่นเหรอค่ะ
    อยากฟังอะ ช่วยเอามาให้ฟังหน่อยดิ
    ไม่เอามาจะโกรธเลย
    เราอุตส่าเป็นแฟนคลับให้ถ้ามีก็เอามาด้วนนะคะ
    จะรอฟัง
  • Sky News
    Guest
  • 20 พ.ค.2549,14:56น.
     Mint คิดเหมือนเราเลยไม่มีเพลงใหม่เหรอค่ะ
    อยากจะฟังอะ
    เป็นแฟนคลับนะเนี่ยตามใจหน่อยดิ
    อยากฟั้ง อยากฟัง
    ไงก็ดอามาให้ฟังหน่อยนะ

    จะรอฟังนะ ให้ได้นะ
  • Dr.NMT
    Guest
  • 20 พ.ค.2549,15:02น.
    ไหนครับเพลงใหม่ที่ไปทำมาอะ
    รอที่จะฟังยู่นะครับ ฟังใหม่ได้
    เร็วๆ หน่อยนะเสร็จแล้วบอกผมด้วยละ
    อยากฟังมากๆครับ55555++++
  • ampm
    Guest
  • 25 พ.ค.2549,12:35น.
    เราว่าตอนร้องแรกๆๆไม่ค่อยรู้เรื่องเลยอ่ะต้องเงี้ยหูฟัง  พอท่อนhookถึงจะรู้เรื่องเราชอบเสียงนักร้องนะร้องไม่เหมือนใครดีขอชมจ้า
  • Takechi
    Guest
  • 26 พ.ค.2549,08:32น.
     สู้ต่อไป !!!!! เพื่อช่วยโลกเราจากเหล่าร้าย 55555+++ล้อเล่นครับ  
    เพราะครับผมชอบมากๆ ครับ เท่กันมาครับมีแฟนคลับด้วย
  • สบายรูสิท่า
    Guest
  • 26 พ.ค.2549,08:36น.
     งานดีครับ เราควรสนันสนุน ผมว่าน่าจะมีเพลงใหม่มาให้ฟังนะครับ  
  • Body Slam
    Guest
  • 26 พ.ค.2549,08:39น.
    หลังฝน 
    Artist : BODYSLAM

    หลังฝน
    ร้อง: BODYSLAM
    Intro: C/G/C/G/D
    G Em Bm/C
    พายุที่มันพัดผ่าน หอบฝนมา ฟ้ามืดมนสักเท่าไร
    G Em Bm
    เราอาจจะต้องหนาว ต้องทรมาน
    C
    แต่ไม่นาน ก็คงจางหาย
    Am D G/B7 Em
    มันเป็นเหมือนกำลังใจจากฟ้า ส่งมาให้คนรู้ว่า
    A D
    ชีวิตมีค่า แค่อย่าพึ่งถอดใจ
    C/G C
    เริ่มใหม่อีกที ชีวิตไม่มีคำว่าสาย
    Bm Em/D C
    เมื่อพายุฝนผ่านพ้น ฟ้าจะสดใส
    G
    และเธอจะได้สุขใจ
    G Em Bm
    กับรักที่เธอเคยผ่าน เจ็บช้ำมา
    C
    ต้องเสียน้ำตา ไปเพราะใคร
    G Em Bm
    มันอาจจะมืดมน ดูหมดหนทาง
    C
    แต่ไม่นาน มันจะผ่านไป

    Am D G/B7
    * เธอจะได้กำลังใจจากฟ้า เธอจะได้รับรู้ว่า
    A D
    รักนี้มีค่า โปรดอย่าพึ่งปิดใจ....
    C G C
    เริ่มใหม่(อีกที)(วันนี้) ความรักไม่มีคำว่าสาย
    Bm Em/D C
    เมื่อพายุฝนผ่านพ้น ฟ้าจะสดใส
    G
    (และเธอจะได้สุขใจ)
    G Bm C
    เดินไป เดินไปบนทางที่เริ่มใหม่ ไปกับหัวใจ
    D C
    ที่พร้อมจะรับความงดงาม และความเข้าใจ
    Bm C
    ทางเดินที่ไม่มีเรื่องเก่า ให้ต้องเศร้าใจ
    Bm
    วันคืนที่ดีอยู่ไม่ไกล
    (ซ้ำ *)
    D C G
    ทุกอย่างสวยงาม แค่เพียงให้เธอเปิดหัวใจ
    Bm Em/D C
    เมื่อเรื่องร้ายๆผ่านพ้น แล้วเธอจะเข้าใจ
    Bm D C G
    รักเธอจะสดใส และเธอจะได้สุขใจ






  • มันไม่ค่อยเกี่ยวแต่ก็เอาเหอะ
    Guest
  • 26 พ.ค.2549,08:46น.
    สักวันฉันจะดีพอ 
    Artist : บอดี้สแลม (Bodyslam)

    C C
    อยากดีพอ ให้เธอได้มั่นใจ
    G G
    (ปับป้าดับ....ปับปับป้า เย้เย...)
    C C
    แต่ที่พอมี ก็แค่ทั่วๆไป
    G G
    (ปับป้าดับ....ปับปับป้า เย้เย...)
    Am Bm
    ความจริงคือเธอยังลังเล
    C D
    ยังไม่เทให้กันหมดหัวใจ
    Am Bm C
    กังวลว่าเธอจะเจอใคร ที่รักเธอเหมือนกัน
    D
    ฉันก็เลยแค่ขอให้
    G Em C
    เธอ...เธออย่าพึ่งไปบอกรักใคร
    D Bm
    รอฉันได้หรือไม่
    Em C
    วันที่ฉันจะดีพอ อยากจะขอเวลาหน่อย
    D G/G
    มันคงไม่นานเกินไป
    C C
    เธอเป็นคนดี ที่ใครก็ต้องการ
    G G
    (ปับป้าดับ....ปับปับป้า เย้เย...)
    C C
    เธอเป็นคนเดียว ที่ใครก็เฝ้าฝัน
    G G
    (ปับป้าดับ....ปับปับป้า เย้เย...)
    Am Bm C D
    ยังไงก็ยังจะจริงจัง จะขอทำทุกทางสุดหัวใจ
    Am Bm C D
    ทำดีให้เท่าที่คิดไว้ อยากให้เราได้คู่กัน ฉันก็เลยแค่ขอให้
    G Em C D
    *เธอ...เธออย่าพึ่งไปบอกรักใคร รอฉันได้หรือไม่
    Em C D
    วันที่ฉันจะดีพอ อยากจะขอเวลาได้ไหม
    G Em C
    เธอ...ก็แค่อยากให้เรารักกัน
    D Bm Em
    ฉันต้องทำให้ได้ ก็คงมีสักวัน
    C D G
    แค่อย่าเผลอไปมีใคร ยังไงก็รอกันหน่อย
    Instru : G / G / Em / Em / C / D / G / G

    Am Bm
    ยังไงก็ยังจะยืนยัน
    C D
    อยากให้เราได้คู่กัน ฉันก็เลยจะขอให้ (ซ้ำ*)

    Instru : G / Em / C

    D Bm Em
    และฉันต้องทำให้ได้ ก็คงมีสักวัน
    C D G/Em/C
    แค่อย่าเผลอไปมีใคร ยังไงก็รอกันหน่อย
    D G/Em/C
    ให้เธอช่วยรอกันหน่อย
    D C Bm / G
    ให้เธอช่วยรอฉันได้รึเปล่า


  • Dr.NTM
    Guest
  • 26 พ.ค.2549,08:51น.
      สวัสดี น้องต่าย ครับ ทำเพลงเสร็จยังอะ เมื่อไรจะเอามาลงละ
    พี่อยากฟังมากๆ
  • พี่ ตู่น Body Slim
    Guest
  • 26 พ.ค.2549,10:08น.
     พี่ชอบวงของพวกน้องๆมาก  น่าสนใจ

    งมงาย - Body Slam


    INTRO : Aadd9 / Aadd9
    -----------------------------------------------------9h12------------
    -10---10---10---10---10---10---10---10--------------10-----
    -----9-----9-----9-----9-----9----9----9---------------------------

    Dmaj7 Aadd9
    เนิ่นนานเท่าไรไม่รู้ที่รอเธอ ฉันจำไม่ได้
    Dmaj7 Aadd9
    ที่จำได้ดีคือฉันมีเพียงเธอ แม้นานสักแค่ไหน
    Bm E
    เธออยู่ที่ใดยังรักกันไหม ฉันไม่รู้
    Aadd9 C#m7 F#m
    แต่ที่รู้ คือฉันนั้นยังไม่เปลี่ยนใจ
    Bm E
    ยังอยู่ตรงนี้ถึงแม้จะเหงาและเดียวดาย

    Dmaj7 C#m7
    * ไม่ผิดใช่ไหม ที่ฉันจะยังรักเธอ
    Bm7 E
    ไม่ว่าเธอกับฉันวันนี้จะอยู่แสนไกล
    Dmaj7
    ก็ยังจะรออย่างมีความหวัง
    C#m7 F#m
    ยังคงไม่เปลี่ยนไป
    Bm7 E
    ไม่ว่าใครจะมองว่าฉันงมงาย
    Dmaj7 Aadd9
    ฉันก็ยังเหมือนเดิม
    Bm7 E
    ( ไม่ว่านานเท่าไร ยังมีเพียงเธอ
    Dmaj7 C#m F#m
    ไม่ผิดใช่ไหมที่ฉันมีเธอคนเดียวในหัวใจ
    G E G Aadd9
    ไม่ว่ายังไง....ฉันก็จะรักเธอ


    G Aadd9
    ฮึม....ฮึม )

    Dmaj7 Aadd9
    เมื่อเธอมีทางชีวิตไม่เหมือนฉัน ฉันห้ามไม่ได้
    Dmaj7 Aadd9
    แต่ฉันจะมีชีวิตเพื่อรอเธอ แม้วันสุดท้าย
    Bm7 E
    เกิดมาได้เจอคนที่ตามหามานานแสนนาน
    Aadd9 C#m7 F#m
    ทำให้รู้ว่าเธอมีค่ามากแค่ไหน
    Bm E
    จะอยู่ตรงนี้ถึงแม้ว่าฉันจะไม่เหลือใคร


    ( ซ้ำ * )


    SOLO : Dmaj7 / Aadd9 / Bm7 / Aadd9 /
    Dmaj7 / Aadd9 / Bm7 / E / Aadd9
    -----------0------------0-------------------------4-----------------0----------------------------------------
    --------0------------0-----------0-----------0---------------------------------------------------------------
    --1/2--------1/2---------1/2-------1/2------------4-4---4/2------------------------------------------
    ----------------------------------------------------------------------------------------------------------------
    ----------------------------------------------------------------------------------------------------------------
    ----------------------------------------------------------------------------------------------------------------


    ----------------------------------------------------------------------------------------------------------------
    ---14---14-15---15-14--14-15---15-14--14----------2---2-3---3-2---2-3---3-2---2-----------
    ---14---14-14---14-14--14-14---14-14--14----------2---2-2---2-2---2-2---2-2---2-----------
    ----------------------------------------------------------------------------------------------------------------
    ----------------------------------------------------------------------------------------------------------------
    ----------------------------------------------------------------------------------------------------------------

    -----------0------------0-------------------------4-----------------0----------------------------------------
    --------0------------0-----------0-----------0---------------------------------------------------------------
    --1/2--------1/2---------1/2-------1/2------------4-4---4/2------------------------------------------
    ----------------------------------------------------------------------------------------------------------------
    ----------------------------------------------------------------------------------------------------------------
    ----------------------------------------------------------------------------------------------------------------


    -----------------------------------------------------------------------------------------------------------------------0----2
    -----14---14-15--15-15-------9---9-9---9-9--------12---12-12--12-12----9h12p9-------9h12p9------------2
    -----14---14-14--14-14-------9---9-9---9-9--------10---10-10--10-10----------------10-------------10-------2
    ------------------------------------------------------------------------------------------------------------------------------
    ------------------------------------------------------------------------------------------------------------------------------
    ------------------------------------------------------------------------------------------------------------------------------


    Bm7 E
    จะรอแค่เธอถึงแม้ใครหาว่างมงาย


    ( ซ้ำ * )
  • เสียตัวอย่าเสียใจ
    Guest
  • 27 พ.ค.2549,19:20น.
              ทำกันได้ดีครับ  โดยใจเด็กแนวอย่างผมเลย ชอบครับ ชอบ 
  • ทำกันไปได้
    Guest
  • 31 พ.ค.2549,21:55น.
     พี่ครับ Tab อาไรอะ มันไม่ค่อยจะเกี่ยวกันะ  
  • ต่าย
    Guest
  • 1 มิ.ย.2549,13:10น.
    งงกับTabเหมือนกันนะฮะ มาด้ายงาย ก็ดีฮะพวกเรารักบอดี้เหมือนกัน เพลงที่เอาไปทำกันมาใหม่เสร็จแล้วนะฮะ ได้ฟังกันแน่เร็วๆนี้ เพื่อโลกและสันติภาพของเรา สู้ๆ ขอบคุณทุกกำลังใจอีกครั้งนะครับ ^_^
  • Sky News
    Guest
  • 3 มิ.ย.2549,16:55น.
     ต่ายไปไหนมาเหรอ ไม่เป็นมานานเลย   
    เพลงใหม่ล่ะค่ะ
  • Mint
    Guest
  • 3 มิ.ย.2549,17:00น.
          ต่าย ไปไหนมาเหรอไม่ค่อยเป็นเข้าโพสเลย  
    เพลงใหม่ละค่ะ อยากจะฟังแล้วเอามาโพสเร็ว
  • ฟิล์ม
    Guest
  • 3 มิ.ย.2549,17:14น.
    คนที่ถูกรัก 
    Bodyslam
    Intro : E/Asus4/E/Asus4
    E/F#m7/C#m7/Dadd9 (2Times)

    1x-x-x-x-x-x-x-x-x-x-x-x-x----
    2-9-9-9-9--10---10---10--10-
    3x-x-x-x-x-x-x-x-x-x-x-x-x-x-
    4-6-6-6-6---7---7----7----7---
    5-----------------------------------
    6-----------------------------------



  • เก็บมาฝาก
    Guest
  • 3 มิ.ย.2549,18:14น.
    ความซื่อสัตย์ 
    Artist : บอดี้สแลมส์(BODYSLAM)


    อัลบัม/Album : Drive

    นอน ฉันก็ยังนอนคนเดียวอยู่
    ฉันก็ยังตัวคนเดียวอยู่
    ไม่มีอะไร มีก็แต่ใจที่ยังมั่นคงต่อ เธอ
    เหมือนวันที่เคยมีกันอยู่
    แม้วันนี้เธอจะไม่อยู่
    ก็ไม่ได้คิดจะให้ชีวิตมีใคร

    * ยังเหมือนเดิม ยังไงก็ยังอย่างงั้น
    เวลาไม่เคยเปลี่ยนฉัน ที่มันยังมีแต่เธอทั้งใจ

    ** ยังเก็บเธอไว้อย่างดี ยังมีรักเดียวเสมอ
    ทุกอย่างยังเหมือนว่าเธอ ไม่จากไป
    ยังอยู่กับรักที่มี ไม่เคยคิดจะเปลี่ยนใจ
    ฉันยังซื่อสัตย์ ยังไม่อาจรักใคร
    ยังรักได้แค่เธอ

    จำ ฉันก็ยังจำแค่เรื่องเก่า
    ฉันก็ยังทำเหมือนๆ เก่า
    ยังมีชีวิตติดอยู่กับความทรงจำ และคำว่ารัก
    แม้ต้องมีฉันเพียงผู้เดียว
    ฉันก็ยังคงจะรักเดียว
    ต่อให้มันเหงา ต่อให้ปวดร้าวเพียงใด

    (*,**)

    ยังรักเธอ...เสมอ ยังรักเธอ...คนเดียว

    ยังเก็บเธอไว้อย่างดี ยังมีรักเดียวเสมอ
    ทุกอย่างยังเหมือนว่าเธอ ไม่จากไป
    ยังอยู่กับรักที่มี ไม่เคยคิดจะเปลี่ยนใจ
    ฉันยังซื่อสัตย์ ยังไม่อาจรักใคร
    แม้คนที่ซื่อสัตย์ต้องไม่เหลือใคร
    แต่ฉันก็รักเธอ

    (ไม่มีเธอฉันก็ไม่เคยคิด จะเปลี่ยนใจ
    แม้ว่าในวันนี้ ไม่มีใคร
    แม้ว่าในวันนี้ ไม่มีเธอ)

    ยังรักเธอ

    ฉันก็ยังนอนคนเดียว
    ฉันก็ยังตัวคนเดียว
    ฉันยังมีเธอคนเดียว
    เพราะทั้งหัวใจยังมีเธอ...เธอผู้เดียว
    ในจิตใจที่มียังรักเดียว
    ทั้งชีวิตยังรักเธอ รักเธอผู้เดียว

    นอน ฉันก็ยังนอนคนเดียว
    ฉันก็ยังตัวคนเดียว
    ก็ฉันยังรักเธอคนเดียว



    เพื่อนๆทดลองฟังเพลงนี้ได้จาก

    ((ขอคอร์ดกีต้าร์))
  • unknow
    Guest
  • 3 มิ.ย.2549,18:15น.
     
  • Dr.NTM
    Guest
  • 4 มิ.ย.2549,12:36น.
    อยากจะฟังเพลงใหม่ครับ  ผมรอจนเหนื่อยล่ะ  
    ((ขอคอร์ดกีต้าร์))
  • ต่าย
    Guest
  • 4 มิ.ย.2549,20:00น.
    อย่าเพิ่งเหนื่อยกันนะฮะ บอกไว้ก่อนกับทุกคนเลยนะฮะว่าที่ไปทำกันมา ที่ Sky News ไปเจอที่ ดนตรีสีเขียว 
    ไม่ได้ไปทำเพลงใหม่กันนะฮะ
    ไปทำเพลง แค่ไม่เคยบอกกันนี่แหละ แต่เราไป อัดกันใหม่ ทำดนตรีใหม่ ร้องใหม่ Mix ใหม่ฮะ
    แจ่มว่าเดิม โพสไว้ ณ วันที่ 4 มิถุนายนนะฮะ
    ได้ฟังกันแน่ ไม่เกินวันศุกร์ครับ ผมยังไม่ได้เอาเพลงไปตัดเลยฮะ
    รอกานหน่อยน๊า เหนื่อยฮะ เรียนด้วย ไม่ค่อยมีเวลามาเยี่ยมเพื่อนๆพี่ๆเท่าไหร่นะฮะ
    ยังไงได้ฟังกันแน่ๆครับ
  • Sky News
    Guest
  • 6 มิ.ย.2549,13:23น.
      มีเพลงช้าไหมค่ะต่าย  แบบซึ้งๆเลยอะ อยากจะฟังของ สองบีอะ 
  • Sky News
    Guest
  • 6 มิ.ย.2549,13:28น.
      มีเพลงช้าไหมค่ะต่าย  แบบซึ้งๆเลยอะ อยากจะฟังของ สองบีอะ 
  • ต่าย
    Guest
  • 7 มิ.ย.2549,15:05น.
    มีอยู่เพลงนึงนะฮะ ไม่รู้ว่าจะฟังกันได้ไหม
    เพราะเพลงช้าเพลงนี้ มันเป็นเพลงที่ทำกันพร้อมกับ แค่ไม่เคยบอกนี่แหละฮะ
    แต่มันออกมาไม่ดีเท่าไหร่ ก็พอฟังได้นะสำหรับพวกผม
    แต่พวกคุณๆจะฟังกันได้รึเปล่านั่นเป็นอีกเรื่องนะฮะ
    เพราะทั้งดนตรีและเนื้อร้องของมัน ไม่ค่อยจะรู้เรื่องเท่าไหร่ แต่จะพยามเอามาลงนะฮะ
    สำหรับเพลงอันใหม่ที่ไปทำกันมานั้น ผมConvert File แล้ว ทำแล้วทำอีก
    ขนาดของไฟล์มันเกิน 1.00MB อ่ะฮะ ผมเลยเอาลงไม่ได้ แต่ถ้าจะเอาลงมันต้อง
    ตัดท่านฮุคออกอ่ะฮะ แล้วจะฟังไม่รู้เรื่องกัน ขอโทษด้วยจริงๆนะฮะ


ขอเชิญร่วมแสดงความคิดเห็นครับ

คลิกที่รูป เพื่อแทรกรูปลงในข้อความ
  • Member :
    username
    password
  • Not a member :
    name
    email