Loading
อันดับในชาร์ท: 0
%  72 9 19
Vote 
เพลงอินดี้ ซึ่งศิลปินอิสระได้สร้างสรรค์ขึ้นนี้ แต่ละเพลงมีลิขสิทธิ์ ห้ามคัดลอก ดัดแปลง หรือ นำไปใช้โดยไม่ได้รับอนุญาตเด็ดขาด หากละเมิดจะถูกดำเนินการทางกฎหมายอย่างถึงที่สุด ทั้งนี้ทางเว็บยินดีประสานและติดต่อระหว่างผู้ขออนุญาต และเจ้าของลิขสิทธิ์ ส่วนจะได้รับอนุญาตหรือไม่แล้วแต่เจ้าของลิขสิทธิ์
อัพโหลดคลิปเพลงนี้ที่คุณ ร้อง/เล่น ด้วยตัวคุณเอง ได้แล้ววันนี้
ระหว่างการทดสอบระบบหากพบข้อผิดพลาด กรุณาแจ้งที่นี่

เพลงอินดี้ Hotel California (Acoustic)

Sonman

คำร้อง : The Eagles
ทำนอง : The Eagles
เรียบเรียง : The Eagles
On a dark desert highway 
Cool wind in my hair
Warm smell of colitas
Rising up through the air
Up ahead in the distance
I saw a shimmering light
My head grew heavy, and my sight grew dim
I had to stop for the night
There she stood in the doorway
I heard the mission bell
And I was thinking to myself
This could be Heaven or this could be Hell
Then she lit up a candle
And she showed me the way
There were voices down the corridor
I thought I heard them say

Welcome to the Hotel Califoia
Such a lovely place
Such a lovely place (background)
Such a lovely face
Plenty of room at the Hotel Califoia
Any time of year
Any time of year (background)
You can find it here
You can find it here

Her mind is Tiffany twisted
She's got the Mercedes bends
She's got a lot of pretty, pretty boys
That she calls friends
How they dance in the courtyard
Sweet summer sweat
Some dance to remember
Some dance to forget
So I called up the Captain
Please bring me my wine
He said
We haven't had that spirit here since 1969
And still those voices are calling from far away
Wake you up in the middle of the night
Just to hear them say

Welcome to the Hotel Califoia
Such a lovely Place
Such a lovely Place (background)
Such a lovely face
They're livin' it up at the Hotel Califoia
What a nice surprise
What a nice surprise (background)
Bring your alibies

Mirrors on the ceiling
Pink champagne on ice
And she said
We are all just prisoners here
Of our own device
And in the master's chambers
They gathered for the feast
They stab it with their steely knives
But they just can't kill the beast
Last thing I remember
I was running for the door
I had to find the passage back to the place I was before
Relax said the nightman
We are programed to recieve
You can check out any time you like
But you can never leave


เสียนิดนึงคับ
ฟังแค่กีตาร์ก็พอคับ เพลงนี้
ไม่รู้เสียงดีหรือเปล่านะ ย่อซะยับเลย
ส่งเพลงนี้ให้เพื่อน
วันที่โพสต์ : 9 ก.ค.2549,15:04น. 58.9.120.248
จำนวนผู้ชม : 57025 คน
แสดงความคิดเห็น : 146 ครั้ง
โพสต์โดย


จาก: ซัน
เข้าร่วม: 14 ปีก่อน
เพลง: 8
โพสต์: 0
เพลงแนะนำ
เพลงฮิต
เลือกแสดงเฉพาะ :

  • bigthi
    Guest
  • 9 ก.ค.2549,16:48น.
    เพาะมากคับ คนแรก
  • Z
    Guest
  • 9 ก.ค.2549,20:33น.
    ยังไม่ได้ฟังครับ คน2
  • จารู้ปายทามม้าย
    Guest
  • 9 ก.ค.2549,21:17น.
    ขอคอร์ดหน่อยจิเส้ย
  • di
    Guest
  • 10 ก.ค.2549,00:05น.
    444
  • กร
    Guest
  • 10 ก.ค.2549,00:09น.
    ร้องแย่ไปนิดน้ะครับ เสียงประสานอ่ามานเพี้ยนมากๆเลย 
  • ???
    Guest
  • 13 ก.ค.2549,12:11น.
    ???
  • 3...2...1...0
    Guest
  • 13 ก.ค.2549,13:44น.
    Bm F#m A E .. .. ..
  • 12
    Guest
  • 13 ก.ค.2549,17:51น.
    sgfsdf
  • 'k;i
    Guest
  • 13 ก.ค.2549,17:51น.
    dfhgfj
  • sdfsdfsd
    Guest
  • 13 ก.ค.2549,17:51น.
    sdgdfgdf
  • gfjkhgjf
    Guest
  • 13 ก.ค.2549,20:45น.
    vfhhgkgj
  • hjlhkgh
    Guest
  • 13 ก.ค.2549,20:45น.
    hlkhjghh
  • ghkgfj
    Guest
  • 13 ก.ค.2549,20:46น.
    gljhklu.lhj
  • ...
    Guest
  • 13 ก.ค.2549,21:42น.
    ถ้าเพิ่มลูกคอจะโครตเพราะเลยนะ การร้องก็ อืมเพี้ยนหน่อยๆหรือป่าว-*-
  • ghjkhf
    Guest
  • 13 ก.ค.2549,21:59น.
    ghjghjg
  • gjkhjihjkjk
    Guest
  • 13 ก.ค.2549,22:00น.
    hkgjkg
  • unknow
    Guest
  • 16 ก.ค.2549,07:55น.
     
  • unknow
    Guest
  • 17 ก.ค.2549,21:35น.
     
  • M
    Guest
  • 19 ก.ค.2549,12:30น.
     คุณเเกะเพลงห่วยมาก................
    กูนะเว้ย.....bm/F#/A/E/G/D/EM/F#
    ***/G/D/EM/BM7/F#
    G/D/EM/F#
    อุ๊ยขี้เกียจพิมพ์โซโล่
    โดย M
  • unknow
    Guest
  • 21 ก.ค.2549,04:53น.
     
  • kk
    Guest
  • 21 ก.ค.2549,16:43น.
    ร้องเพี้ยน..มากๆครับ แต่เล่นได้แค่นี้ก็เก่งแล้วละครับ
  • ทอม
    Guest
  • 21 ก.ค.2549,16:53น.
    จังหวะเพี้ยน
  • unknow
    Guest
  • 22 ก.ค.2549,09:19น.
     
  • unknow
    Guest
  • 23 ก.ค.2549,09:26น.
     
  • unknow
    Guest
  • 24 ก.ค.2549,10:17น.
     
  • 24 ก.ค.2549,11:56น.
    guitar 1 glenn frey
    HOTEL CALIFORNIA


    EAGLES
    Glenn Frey (Capo 2)
    t=75



    ^
    W W W
    E||-------------------|--0----------------|-------------------|
    B||-------------------|--1----------------|-------------------|
    G||-------------------|--2----------------|-------------------|
    D||-------------------|--2----------------|-------------------|
    A||-------------------|--0----------------|-------------------|
    E||-------------------|--0----------------|-------------------|


    ^ ^
    E H Q. W W Q E
    ---------------------|-------------------|--1----------------|----------|
    -----3--------L------|-------------------|--3----------------|----------|
    -----0--------L------|-------------------|--2----------------|----------|
    -----0--------L------|-------------------|--0----------------|----------|
    ---------------------|-------------------|--0----------------|----------|
    -----3--------L------|-------------------|-------------------|----------|


    W W W W
    -------------------|-------------------|-------------------|-------------------|
    -------------------|-------------------|-------------------|-------------------|
    -------------------|-------------------|-------------------|-------------------|
    -------------------|-------------------|-------------------|-------------------|
    -------------------|-------------------|-------------------|-------------------|
    -------------------|-------------------|-------------------|-------------------|


    ^
    E E E H E W W
    -----------0--------L--|-------------------|-------------------|
    -----------0--------L--|-------------------|-------------------|
    -----------1--------L--|-------------------|-------------------|
    --------0--2--------L--|-------------------|-------------------|
    -----2-----------------|-------------------|-------------------|
    --0--------------------|-------------------|-------------------|


    ^
    W W W W
    -------------------|-------------------|-------------------|--0----------------|
    -------------------|-------------------|-------------------|--1----------------|
    -------------------|-------------------|-------------------|--2----------------|
    -------------------|-------------------|-------------------|--2----------------|
    -------------------|-------------------|-------------------|--0----------------|
    -------------------|-------------------|-------------------|--0----------------|


    ^ ^
    W W W W
    -------------------|-------------------|-------------------|--1----------------|
    -------------------|--3----------------|-------------------|--3----------------|
    -------------------|--0----------------|-------------------|--2----------------|
    -------------------|--0----------------|-------------------|--0----------------|
    -------------------|-------------------|-------------------|--0----------------|
    -------------------|--3----------------|-------------------|-------------------|


    ^
    W W W
    -------------------|--0----------------|-------------------|
    -------------------|--0----------------|-------------------|
    -------------------|--1----------------|-------------------|
    -------------------|--2----------------|-------------------|
    -------------------|--2----------------|-------------------|
    -------------------|--0----------------|-------------------|


    E S S S E S Q E E E S S S E S H
    -----0---------------------|-----------0-------------|
    -------1-L----1------------|-----0--------0----------|
    ----------------2----------|----------------1--------|
    -----------2------------0--|-------0-L---------------|
    --0------------------3-----|-------------------------|
    ---------------------------|--4----------------------|


    E S S S E S Q Q E S S S E S H
    --------------------------|-----------0-------------|
    -----0--------0-----------|-----1--------1----------|
    -------0-L-2----0---------|----------------2--------|
    ---------------------0----|-------0-L---------------|
    --------------------------|-------------------------|
    --3-----------------------|--2----------------------|


    ^ ^ v ^ ^ v
    E S S S E S E E S S E E S S S E S E S S E S S
    -----------1------------------|-----0--------0---------------|
    --------------1------------1--|-----------1------------------|
    -----2----------2-----0h-2----|-------0-L------0--0-0-0--0-0-|
    -------------------3----------|----------------2--2-2-2--2-2-|
    -------3-L--------------------|--3----------------3-3-3--3-3-|
    --1---------------------------|------------------------------|


    ^ ^ v ^ ^
    E S S S E S E S S E E E S S S E S H
    -----1--------1----1-1-1-----|----------------0--------|
    -----------3-------3-3-3-----|-----0-----0----0--------|
    -------2-L------2--2-2-2-----|-----------1----1--------|
    --0-------------0--0-0-0--0--|-------0-L----0----------|
    -----------------------0-----|-------------------------|
    -----------------------------|--0----------------------|


    E S S S E S Q E E E S S S E S H
    -----0---------------------|-----------0-------------|
    -------1-L----1------------|-----0--------0----------|
    ----------------2----------|----------------1--------|
    -----------2------------0--|-------0-L---------------|
    --0------------------3-----|-------------------------|
    ---------------------------|--4----------------------|


    E S S S E S Q Q E S S S E S H
    --------------------------|-----------0-------------|
    -----0--------0-----------|-----1--------1----------|
    -------0-L-2----0---------|----------------2--------|
    ---------------------0----|-------0-L---------------|
    --------------------------|-------------------------|
    --3-----------------------|--2----------------------|


    ^ ^ v ^ ^ v
    E S S S E S E E S S E E S S S E S E S S E S S
    -----------1------------------|-----0--------0---------------|
    --------------1------------1--|-----------1------------------|
    -----2----------2-----0h-2----|-------0-L------0--0-0-0--0-0-|
    -------------------3----------|----------------2--2-2-2--2-2-|
    -------3-L--------------------|--3----------------3-3-3--3-3-|
    --1---------------------------|------------------------------|


    ^ ^ v ^ ^
    E S S S E S E S S E E E S S S E S H
    -----1--------1----1-1-1-----|----------------0--------|
    -----------3-------3-3-3-----|-----0-----0----0--------|
    -------2-L------2--2-2-2-----|-----------1----1--------|
    --0-------------0--0-0-0--0--|-------0-L----0----------|
    -----------------------0-----|-------------------------|
    -----------------------------|--0----------------------|


    E S S S E S Q E E E S S S E S H
    -----0---------------------|-----------0-------------|
    -------1-L----1------------|-----0--------0----------|
    ----------------2----------|----------------1--------|
    -----------2------------0--|-------0-L---------------|
    --0------------------3-----|-------------------------|
    ---------------------------|--4----------------------|


    E S S S E S Q Q E S S S E S H
    --------------------------|-----------0-------------|
    -----0--------0-----------|-----1--------1----------|
    -------0-L-2----0---------|----------------2--------|
    ---------------------0----|-------0-L---------------|
    --------------------------|-------------------------|
    --3-----------------------|--2----------------------|


    ^ ^ v ^ ^ v
    E S S S E S E E S S E E S S S E S E S S E S S
    -----------1------------------|-----0--------0---------------|
    --------------1------------1--|-----------1------------------|
    -----2----------2-----0h-2----|-------0-L------0--0-0-0--0-0-|
    -------------------3----------|----------------2--2-2-2--2-2-|
    -------3-L--------------------|--3----------------3-3-3--3-3-|
    --1---------------------------|------------------------------|


    ^ ^ v ^ ^
    E S S S E S E S S E E E S S S E S H
    -----1--------1----1-1-1-----|----------------0--------|
    -----------3-------3-3-3-----|-----0-----0----0--------|
    -------2-L------2--2-2-2-----|-----------1----1--------|
    --0-------------0--0-0-0--0--|-------0-L----0----------|
    -----------------------0-----|-------------------------|
    -----------------------------|--0----------------------|


    E S S S E S Q E E E S S S E S H
    -----0---------------------|-----------0-------------|
    -------1-L----1------------|-----0--------0----------|
    ----------------2----------|----------------1--------|
    -----------2------------0--|-------0-L---------------|
    --0------------------3-----|-------------------------|
    ---------------------------|--4----------------------|


    E S S S E S Q Q E S S S E S H
    --------------------------|-----------0-------------|
    -----0--------0-----------|-----1--------1----------|
    -------0-L-2----0---------|----------------2--------|
    ---------------------0----|-------0-L---------------|
    --------------------------|-------------------------|
    --3-----------------------|--2----------------------|


    ^ ^ v ^ ^ v
    E S S S E S E E S S E E S S S E S E S S E S S
    -----------1------------------|-----0--------0---------------|
    --------------1------------1--|-----------1------------------|
    -----2----------2-----0h-2----|-------0-L------0--0-0-0--0-0-|
    -------------------3----------|----------------2--2-2-2--2-2-|
    -------3-L--------------------|--3----------------3-3-3--3-3-|
    --1---------------------------|------------------------------|


    ^ ^ v ^ ^
    E S S S E S E S S E E E S S S E S Q S S S S
    -----1--------1----1-1-1-----|----------------0------------|
    -----------3-------3-3-3-----|-----0-----0----0------------|
    -------2-L------2--2-2-2-----|-----------1----1------------|
    --0-------------0--0-0-0--0--|-------0-L----0--------------|
    -----------------------0-----|-------------------------0-2-|
    -----------------------------|--0------------------0-4-----|


    E S S S S S S E S S E E E. S S E. Q Q
    --1--------1-1-1-1--1---1--1--|--0-------0---0---------|
    --1----1---1-1-1-1--1-1-1--1--|--1-------1---1----1----|
    --2--2-2-L-------2--2---2--2--|--0-------0---0----0----|
    --3--3-----------3--3---3--3--|--2---2-L-2-------------|
    ------------------------------|--3---3-L---------------|
    ------------------------------|------------------------|


    E S S S S S S Q E S S E S S S S S S S S S S E E
    --0--------------0-----------|--0----------0---0-----0-0-----|
    --0--------0-----0----0------|--1--1-----1-----1---1---1-----|
    --1----1-L-1---1------1--1-1-|--2----2-L-----2---2-----2-----|
    --2--2-------2--------2------|--2-------------------------0--|
    --2--------------------------|-------------------------------|
    --0--------------------------|-------------------------------|


    E S S S E. Q Q E S S S E S E S S Q
    -----------1--------1----|--0-------------0--1-0------|
    --1----1-L-----1----1----|--1-------------1--0---1----|
    --2--2---------2---------|--0----0-L-0--0----1---0----|
    --3------------3---------|--2--2-2-L------------------|
    -------------------------|--3--3-3-L------------------|
    -------------------------|----------------------------|


    ^
    E S S S E. Q E E E S S S E. H
    -----------1---1------------|-----------0---0--------|
    --3--------3---3----3-------|-------0-L-----0--------|
    --2----2-L----------2--(0)--|--1----1-L-----1--------|
    --0--0----------------------|--2--2---------2--------|
    ----------------------------|--2---------------------|
    ----------------------------|--0---------------------|


    E S S S E S Q E E E S S S E S H
    -----0---------------------|-----------0-------------|
    -------1-L----1------------|-----0--------0----------|
    ----------------2----------|----------------1--------|
    -----------2------------0--|-------0-L---------------|
    --0------------------3-----|-------------------------|
    ---------------------------|--4----------------------|


    E S S S E S Q Q E S S S E S H
    --------------------------|-----------0-------------|
    -----0--------0-----------|-----1--------1----------|
    -------0-L-2----0---------|----------------2--------|
    ---------------------0----|-------0-L---------------|
    --------------------------|-------------------------|
    --3-----------------------|--2----------------------|


    ^ ^ v ^ ^ v
    E S S S E S E E S S E E S S S E S E S S E S S
    -----------1------------------|-----0--------0---------------|
    --------------1------------1--|-----------1------------------|
    -----2----------2-----0h-2----|-------0-L------0--0-0-0--0-0-|
    -------------------3----------|----------------2--2-2-2--2-2-|
    -------3-L--------------------|--3----------------3-3-3--3-3-|
    --1---------------------------|------------------------------|


    ^ ^ v ^ ^
    E S S S E S E S S E E E S S S E S H
    -----1--------1----1-1-1-----|----------------0--------|
    -----------3-------3-3-3-----|-----0-----0----0--------|
    -------2-L------2--2-2-2-----|-----------1----1--------|
    --0-------------0--0-0-0--0--|-------0-L----0----------|
    -----------------------0-----|-------------------------|
    -----------------------------|--0----------------------|


    E S S S E S Q E E E S S S E S H
    -----0---------------------|-----------0-------------|
    -------1-L----1------------|-----0--------0----------|
    ----------------2----------|----------------1--------|
    -----------2------------0--|-------0-L---------------|
    --0------------------3-----|-------------------------|
    ---------------------------|--4----------------------|


    E S S S E S Q Q E S S S E S H
    --------------------------|-----------0-------------|
    -----0--------0-----------|-----1--------1----------|
    -------0-L-2----0---------|----------------2--------|
    ---------------------0----|-------0-L---------------|
    --------------------------|-------------------------|
    --3-----------------------|--2----------------------|


    ^ ^ v ^ ^ v
    E S S S E S E E S S E E S S S E S E S S E S S
    -----------1------------------|-----0--------0---------------|
    --------------1------------1--|-----------1------------------|
    -----2----------2-----0h-2----|-------0-L------0--0-0-0--0-0-|
    -------------------3----------|----------------2--2-2-2--2-2-|
    -------3-L--------------------|--3----------------3-3-3--3-3-|
    --1---------------------------|------------------------------|


    ^ ^ v ^ ^
    E S S S E S E S S E E E S S S E S Q S S S S
    -----1--------1----1-1-1-----|----------------0------------|
    -----------3-------3-3-3-----|-----0-----0----0------------|
    -------2-L------2--2-2-2-----|-----------1----1------------|
    --0-------------0--0-0-0--0--|-------0-L----0--------------|
    -----------------------0-----|-------------------------0-2-|
    -----------------------------|--0------------------0-4-----|


    E S S S S S S E S S E E E. S S E. Q Q
    --1--------1-1-1-1--1---1--1--|--0-------0---0---------|
    --1----1-L-1-1-1-1--1-1-1--1--|--1-------1---1----1----|
    --2--2-2-L-------2--2---2--2--|--0-------0---0----0----|
    --3--3-----------3--3---3--3--|--2---2-L-2-------------|
    ------------------------------|--3---3-L---------------|
    ------------------------------|------------------------|


    E S S S S S S Q E S S E S S S S S S S S S S E E
    --0--------------0-----------|--0----------0---0-----0-0-----|
    --0--------0-----0----0------|--1--1-----1-----1---1---1-----|
    --1----1-L-1---1------1--1-1-|--2----2-L-----2---2-----2-----|
    --2--0-------2--------2------|--2-------------------------0--|
    --2--------------------------|-------------------------------|
    --0--------------------------|-------------------------------|


    E S S S E. Q Q E S S S E S E S S Q
    -----------1--------1----|--0-------------0--1-0------|
    --1------------1----1----|--1-------------1--0---1----|
    --2----2-L-----2---------|--0----0---0--0----1---0----|
    --3--3---------3---------|--2--2-2-L------------------|
    ---------L---------------|--3--3-3-L------------------|
    -------------------------|----------------------------|


    ^
    E S S S S S S S S S S E E W E S S S E S Q E E
    --0----------0---0-----0-0-----|--0----------------|-----0---------------------|
    --1--1-----1-----1---1---1-----|--0----------------|-------1-L----1------------|
    --2----2-L-----2---2-----2-----|--1----------------|----------------2----------|
    --2-------------------------0--|--2----------------|-----------2------------0--|
    -------------------------------|--2----------------|--0------------------3-----|
    -------------------------------|--0----------------|---------------------------|


    E S S S E S H E S S S E S Q Q E S S S E S H
    -----------0-------------|--------------------------|-----------0-------------|
    -----0--------0----------|-----0--------0-----------|-----1--------1----------|
    ----------------1--------|-------0-L-2----0---------|----------------2--------|
    -------0-L---------------|---------------------0----|-------0-L---------------|
    -------------------------|--------------------------|-------------------------|
    --4----------------------|--3-----------------------|--2----------------------|


    ^ ^ v ^ ^ v
    E S S S E S E E S S E E S S S E S E S S E S S
    -----------1------------------|-----0--------0---------------|
    --------------1------------1--|-----------1------------------|
    -----2----------2-----0h-2----|-------0-L------0--0-0-0--0-0-|
    -------------------3----------|----------------2--2-2-2--2-2-|
    -------3-L--------------------|--3----------------3-3-3--3-3-|
    --1---------------------------|------------------------------|


    ^ ^ v ^ ^
    E S S S E S E S S E E E S S S E S H
    -----1--------1----1-1-1-----|----------------0--------|
    -----------3-------3-3-3-----|-----0-----0----0--------|
    -------2-L------2--2-2-2-----|-----------1----1--------|
    --0-------------0--0-0-0--0--|-------0-L----0----------|
    -----------------------0-----|-------------------------|
    -----------------------------|--0----------------------|


    E S S S E S Q E E E S S S E S H
    -----0---------------------|-----------0-------------|
    -------1-L----1------------|-----0--------0----------|
    ----------------2----------|----------------1--------|
    -----------2------------0--|-------0-L---------------|
    --0------------------3-----|-------------------------|
    ---------------------------|--4----------------------|


    E S S S E S Q Q E S S S E S H
    --------------------------|-----------0-------------|
    -----0--------0-----------|-----1--------1----------|
    -------0-L-2----0---------|----------------2--------|
    ---------------------0----|-------0-L---------------|
    --------------------------|-------------------------|
    --3-----------------------|--2----------------------|


    ^ ^ v ^ ^ v
    E S S S E S E E S S E E S S S E S E S S E S S
    -----------1------------------|-----0--------0---------------|
    --------------1------------1--|-----------1------------------|
    -----2----------2-----0h-2----|-------0-L------0--0-0-0--0-0-|
    -------------------3----------|----------------2--2-2-2--2-2-|
    -------3-L--------------------|--3----------------3-3-3--3-3-|
    --1---------------------------|------------------------------|


    ^ ^ v ^ ^
    E S S S E S E S S E E E S S S E S Q E E
    -----1--------1----1-1-1-----|----------------0----------|
    -----------3-------3-3-3-----|-----0-----0----0----0-----|
    -------2-L------2--2-2-2-----|-----------1----1-------0--|
    --0-------------0--0-0-0--0--|-------0-L----0------------|
    -----------------------0-----|---------------------------|
    -----------------------------|--0------------------------|


    E S S S E S Q E E E S S S E S H
    -----0---------------------|-----------0-------------|
    -------1-L----1------------|-----0--------0----------|
    ----------------2----------|----------------1--------|
    -----------2------------0--|-------0-L---------------|
    --0------------------3-----|-------------------------|
    ---------------------------|--4----------------------|


    E S S S E S Q Q E S S S E S H
    --------------------------|-----------0-------------|
    -----0--------0-----------|-----1--------1----------|
    -------0-L-2----0---------|----------------2--------|
    ---------------------0----|-------0-L---------------|
    --------------------------|-------------------------|
    --3-----------------------|--2----------------------|


    ^ ^ v ^ ^ v
    E S S S E S E E S S E E S S S E S E S S E S S
    -----------1------------------|-----0--------0---------------|
    --------------1------------1--|-----------1------------------|
    -----2----------2-----0h-2----|-------0-L------0--0-0-0--0-0-|
    -------------------3----------|----------------2--2-2-2--2-2-|
    -------3-L--------------------|--3----------------3-3-3--3-3-|
    --1---------------------------|------------------------------|


    ^ ^ v ^ ^
    E S S S E S E S S E E E S S S E S Q E E
    -----1--------1----1-1-1-----|----------------0----------|
    -----------3-------3-3-3-----|-----0-----0----0----0-----|
    -------2-L------2--2-2-2-----|-----------1----1-------0--|
    --0-------------0--0-0-0--0--|-------0-L----0------------|
    -----------------------0-----|---------------------------|
    -----------------------------|--0------------------------|


    E S S S E S Q E E E S S S E S H
    -----0---------------------|-----------0-------------|
    -------1-L----1------------|-----0--------0----------|
    ----------------2----------|----------------1--------|
    -----------2------------0--|-------0-L---------------|
    --0------------------3-----|-------------------------|
    ---------------------------|--4----------------------|


    E S S S E S Q Q E S S S E S H
    --------------------------|-----------0-------------|
    -----0--------0-----------|-----1--------1----------|
    -------0-L-2----0---------|----------------2--------|
    ---------------------0----|-------0-L---------------|
    --------------------------|-------------------------|
    --3-----------------------|--2----------------------|


    ^ ^ v ^ ^ v
    E S S S E S E E S S E E S S S E S E S S E S S
    -----------1------------------|-----0--------0---------------|
    --------------1------------1--|-----------1------------------|
    -----2----------2-----0h-2----|-------0-L------0--0-0-0--0-0-|
    -------------------3----------|----------------2--2-2-2--2-2-|
    -------3-L--------------------|--3----------------3-3-3--3-3-|
    --1---------------------------|------------------------------|


    ^ ^ v ^ ^
    E S S S E S E S S E E E S S S E S H
    -----1--------1----1-1-1-----|----------------0--------|
    -----------3-------3-3-3-----|-----0-----0----0--------|
    -------2-L------2--2-2-2-----|-----------1----1--------|
    --0-------------0--0-0-0--0--|-------0-L----0----------|
    -----------------------0-----|-------------------------|
    -----------------------------|--0----------------------|


    E S S S E S Q E E E S S S E S H
    -----0---------------------|-----------0-------------|
    -------1-L----1------------|-----0--------0----------|
    ----------------2----------|----------------1--------|
    -----------2------------0--|-------0-L---------------|
    --0------------------3-----|-------------------------|
    ---------------------------|--4----------------------|


    E S S S E S Q Q E S S S E S H
    --------------------------|-----------0-------------|
    -----0--------0-----------|-----1--------1----------|
    -------0-L-2----0---------|----------------2--------|
    ---------------------0----|-------0-L---------------|
    --------------------------|-------------------------|
    --3-----------------------|--2----------------------|


    ^ ^ v ^ ^ v
    E S S S E S E E S S E E S S S E S E S S E S S
    -----------1------------------|-----0--------0---------------|
    --------------1------------1--|-----------1------------------|
    -----2----------2-----0h-2----|-------0-L------0--0-0-0--0-0-|
    -------------------3----------|----------------2--2-2-2--2-2-|
    -------3-L--------------------|--3----------------3-3-3--3-3-|
    --1---------------------------|------------------------------|


    ^ ^ v ^ ^
    E S S S E S E S S E E E S S S E S H
    -----1--------1----1-1-1-----|----------------0--------|
    -----------3-------3-3-3-----|-----0-----0----0--------|
    -------2-L------2--2-2-2-----|-----------1----1--------|
    --0-------------0--0-0-0--0--|-------0-L----0----------|
    -----------------------0-----|-------------------------|
    -----------------------------|--0----------------------|


    ^ v ^ ^
    S S S S H Q W
    --0-0-0-0---------------|-------------------||
    --1-1-1-1---------------|-------------------||
    --2-2-2-2---------------|-------------------||
    --2-2-2-2---------------|-------------------||
    --0-0-0-0---------------|-------------------||
    ------------------------|-------------------||

  • 24 ก.ค.2549,11:58น.
    guitar2 Don Felder 
    HOTEL CALIFORNIA


    EAGLES
    Don Felder
    t=75



    W E E S T T E E E E E
    E||-------------------|----------------------------------|
    B||-------------------|----------------------------------|
    G||-------------------|-------------------------------9--|
    D||-------------------|-----9--9h-11p-9-8--9--11--12-----|
    A||-------------------|----------------------------------|
    E||-------------------|----------------------------------|


    |---3---|
    E S S S S E. H Q E E E E E S S
    -----------------------------------|--------------------------|
    -----------------------------------|--------------------------|
    --11--11h-12p-11-9h-11~---L--------|-------------7--6---------|
    -----------------------------------|-------7--9--------7--7-9-|
    -----------------------------------|--------------------------|
    -----------------------------------|--------------------------|


    E S S S E. Q. S S Q S S S S S S S S S S S S S S S S S S
    ---------------------------|-------------0-------0-------0-|--------0-----|
    ---------------------------|-----------0-------0-------0---|------0-----8-|
    ---------------------------|--L------0-------2-------4-----|----7-----9---|
    --7----------------------7-|-------2-------4-------5-------|--9-----------|
    -----9-7-5-7~---L------L---|-------------------------------|--------------|
    ---------------------------|-------------------------------|--------------|


    S S S S S S T. T. T. T. T. T. T. T. T. T. T. T. T T
    --7p-0-----10p-0-------7p-0--------10p-0--------7p-0------|
    ---------8----------8-----------8------------8----------8-|
    -------9---------9-----------9------------9-----------9---|
    ----------------------------------------------------------|
    ----------------------------------------------------------|
    ----------------------------------------------------------|


    T T T T T T T T T T T T T T T T T X. X. X. X. X. X. X. X. X. X. X. X.
    --10p-0-----7p-0-----10p-0-----7p-0-----10p-0--------7p-0--------10p-0--------7p
    ----------8--------8---------8--------8-----------8-----------8------------8----
    --------9--------9---------9--------9----------9-----------9------------9-------
    --------------------------------------------------------------------------------
    --------------------------------------------------------------------------------
    --------------------------------------------------------------------------------


    X. X. X. X. X. X. X. X. X. X. X. X. X. X. X. X. X. X. X. X. X. X. X. X. X.
    --0--------10p-0--------7p-0--------10p-0--------7p-0--------10p-0--------7p-0--
    --------8------------8-----------8------------8-----------8------------8--------
    -----9------------9-----------9------------9-----------9------------9-----------
    --------------------------------------------------------------------------------
    --------------------------------------------------------------------------------
    --------------------------------------------------------------------------------


    S S S S S S S S E E E E E E E E H
    --7p-0-----10p-0-----7--6--7--9--|--10--9--10--12--14~--------|
    ---------8---------8-------------|----------------------------|
    -------9---------9---------------|----------------------------|
    ---------------------------------|----------------------------|
    ---------------------------------|----------------------------|
    ---------------------------------|----------------------------|


    W W W W
    --L----------------|-------------------|-------------------|-------------------|
    -------------------|-------------------|-------------------|-------------------|
    -------------------|-------------------|-------------------|-------------------|
    -------------------|-------------------|-------------------|-------------------|
    -------------------|-------------------|-------------------|-------------------|
    -------------------|-------------------|-------------------|-------------------|


    p
    W E. S S S S S S S S S S S S S
    -------------------|----------------------------------------|
    -------------------|----------------------------------------|
    -------------------|--------11h-12p-11-9-11-11-L-9-L-11-L-7-|
    -------------------|------9---------------------------------|
    -------------------|----------------------------------------|
    -------------------|----------------------------------------|


    p mp
    S S S S E S S H E S S S S S S S S S S E E
    ----------------------------|-------------------------------|
    ----------------------------|-------------------------------|
    --L-9p-7---7----------------|-----------7-6---6---6---------|
    ---------9----7-9--L--------|-------7-9-----9-------7-L--9--|
    ----------------------------|-------------------------------|
    ----------------------------|-------------------------------|


    |---3--|
    S S S S S S T T S E S S E E E
    --------------------7----L-9-10--9--10--|
    --------8-L-7-8h-10---------------------|
    --6-7-9---------------------------------|
    ----------------------------------------|
    ----------------------------------------|
    ----------------------------------------|


    Q S T T T T T T S T T T T T T S T T T T T T
    --12----------0-L-L-L-L-----0-L-L-L-------0-L-L-L-|
    ------------0---L-L-L-L---0---L-L-L-----0-L-L-L-L-|
    ----------0-----L-L-L---2-----L-L-L---4-----L-L-L-|
    --------2-L-L-L-L-L-L-4-L-L-L-L-L-L-5-L-L-L-L-L-L-|
    --------------------------------------------------|
    --------------------------------------------------|


    mp
    S S S S S S S S S S S S S S E
    --------0-7p-0----10-L-12-L-10-L----L--|
    ------0--------0-----------------12----|
    ----7----------------------------------|
    --9------------------------------------|
    ---------------------------------------|
    ---------------------------------------|


    |--3--| |--3--|
    E S X. X X. S X. X X. E E E E E E E S S S S S S S S H
    -----9-9h-10p-9--7-7h-9p-7--6--------------------|---------------------------|
    -------------------------------8--7--7--7--8--7--|----7----------------------|
    -------------------------------------------------|--9-----7---6--------------|
    -------------------------------------------------|--------------9-8-L--------|
    -------------------------------------------------|---------------------------|
    -------------------------------------------------|---------------------------|


    E S S S E S Q E E E S S S E S H
    ----------------7----------|-----------9--------------|
    -----------7---------------|-------7-L----9-11--------|
    -------7-L----7------7--9--|-----9--------------------|
    -----9---------------------|--8-----------------------|
    ---------------------------|--------------------------|
    --7------------------------|--------------------------|


    E S S S E S Q Q E S S S E S H
    ------------7---------------|-----------------7--------|
    -------10-L------10---------|------------7-------------|
    -----9---------9-------9----|--------7-L----7----------|
    --7-------------------------|------9-------------------|
    ----------------------------|--11----------------------|
    ----------------------------|--------------------------|


    E S S S E S Q S S E E S E E S Q Q
    -----------------7------------|----------10---------------|
    ------------8-----------------|-------7--------7----------|
    --------7-L----------------7--|-----7--------7------------|
    ------9--------9------7h-9----|---------------------------|
    --10--------------------------|--9------------------------|
    ------------------------------|---------------------10----|


    E S E E S Q Q E S S S E S H E S S S S E Q Q
    ---------------7---------|----------------9--------|----------------2---------|
    ----------8--------------|-----------7-------------|---------------------3----|
    -------7-----7-----------|-----7-9-L----9----------|-------4-----4------------|
    -----9-------------------|-------------------------|-----4-----4--------------|
    --7----------------------|--9----------------------|--2------2----------------|
    --------------------7----|-------------------------|--------------------------|


    E S S S E S H E S S S E S Q Q
    ------------------2--------|----------------5---------|
    -------------2-------------|-----------2---------2----|
    ---------3-L----3----------|-------2-L----2-----------|
    -----(4)-------------------|-----2--------------------|
    ---------------------------|--0-----------------------|
    --2------------------------|--------------------------|


    E S S S S S S H E S S S E S Q Q
    -----------------0--------|----------------------------|
    --------------------------|-----0-----0------2----3----|
    -------1-L----------------|--0----0-L----(0)-----------|
    -----2--------------------|--0-------------------------|
    --2--------2---2----------|--2-------------------------|
    --0----------3------------|--3-------------------------|


    E S S S E. Q Q E S S S S E Q Q
    -------------2---2---------|--------------------------|
    -----------3----------3----|-----0-----0----0---------|
    --2--(2)-L-----------------|-------0-L---2-------0----|
    --0------------------------|--2-----------------------|
    ---------------------------|--------------------------|
    ---------------------------|--------------------------|


    E S S S E S H E S S S S E Q Q
    ----------------2--------|----------------2---------|
    -----------2-------------|---------------------3----|
    -------3-L----3----------|-------4-----4------------|
    -----4-------------------|-----4-----4--------------|
    -------------------------|--2------2----------------|
    --2----------------------|--------------------------|


    E S S S E S H E S S S E S Q Q
    ------------------2--------|----------------5---------|
    -------------2-------------|-----------2---------2----|
    ---------3-L----3----------|-------2-L----2-----------|
    -----(4)-------------------|-----2--------------------|
    ---------------------------|--0-----------------------|
    --2------------------------|--------------------------|


    E S S S S S S H E S S S E S Q Q
    -----------------0--------|----------------------------|
    --------------------------|-----0-----0------2----3----|
    -------1-L----------------|--0----0-L----(0)-----------|
    -----2--------------------|--0-------------------------|
    --2--------2---2----------|--2-------------------------|
    --0----------3------------|--3-------------------------|


    E S S S E. Q Q E S S S S E Q Q
    -------------2---2---------|--------------------------|
    -----------3----------3----|-----0-----0----0---------|
    --2--(2)-L-----------------|-------0-L---2-------0----|
    --0------------------------|--2-----------------------|
    ---------------------------|--------------------------|
    ---------------------------|--------------------------|


    E S S S E S H H Q E S S W
    ----------------2--------|-------------------------|--------------------|
    -----------2-------------|-----------------5--5h-7-|--------------------|
    -------3-L----3----------|--7~--------L----6--6----|--6~----------------|
    -----4-------------------|--9~--------L------------|--8~----------------|
    -------------------------|-------------------------|--------------------|
    --2----------------------|-------------------------|--------------------|


    H Q E S S W H Q E S S
    -------------------------|--------------------|-------------------------|
    -----------------3--3h-5-|--------------------|-----------------2--2h-3-|
    --6~--------L----4--4----|--4~----------------|--4~--------L----2--2h-4-|
    --7~--------L------------|--2~----------------|--5~--------L------------|
    -------------------------|--------------------|-------------------------|
    -------------------------|--------------------|-------------------------|


    Q E S T T E. S E E E S S S S S S S S S S Q
    -----------------2-----------|--0------------0-------0------|
    -----------------3-----3-----|--0----0-----0-------0--------|
    --2~----L--L---2-----2----2--|-----0-----2-------4-----4----|
    --4~----L--L-4---------------|--2------4-------5-------5----|
    -----------------------------|------------------------------|
    -----------------------------|------------------------------|


    S S S S S S S S Q S S S S W
    --------------------2------------|-------------------|
    --------2---2-----2--------------|-------------------|
    --------3-------3----------------|--7----------------|
    ----------4---4------------------|--0----------------|
    ------4--------------------1-2-4-|-------------------|
    --(2)--------------------2-------|-------------------|


    ^
    E S S S E S E E Q E S S S E. Q E E Q Q Q E E
    --2--------2---------------|--2------------2----------|-------0----2----3--5--|
    --3----3-L------3-----3----|--2--------2---2----2--2--|--3----2----3----5--7--|
    --2--2--------2----2-------|--3----3-L----------3--3--|--4--------------------|
    ---------------------------|--4--4--------------4--4--|-----------------------|
    ---------------------------|--------------------4--4--|-----------------------|
    ---------------------------|--------------------------|-----------------------|


    ^
    W E S S S E S E S S Q E S S S E S H
    --7----------------|--2--------2----2------------|----------------0--------|
    --8----------------|--3----3-L------3------3~----|-----------0-------------|
    -------------------|--2----2-L----2-2--2-2-------|-------0-L----0----------|
    -------------------|--0--0-------------0-0-------|-----2-------------------|
    -------------------|-----------------------------|-------------------------|
    -------------------|-----------------------------|--0----------------------|


    E S S S E S H E S S S S E Q Q
    -------------------------|----------------2---------|
    -----------2----2--------|---------------------3----|
    -------3-L----3----------|-------4-----4------------|
    -----4-------------------|-----4-----4--------------|
    -------------------------|--2------2----------------|
    --2----------------------|--------------------------|


    E S S S E S H E S S S E S Q Q
    ------------------2--------|----------------5---------|
    -------------2-------------|-----------2---------2----|
    ---------3-L----3----------|-------2-L----2-----------|
    -----(4)-------------------|-----2--------------------|
    ---------------------------|--0-----------------------|
    --2------------------------|--------------------------|


    E S S S S S S H E S S S E S Q Q
    -----------------0--------|----------------------------|
    --------------------------|-----0-----0------2----3----|
    -------1-L----------------|--0----0-L----(0)-----------|
    -----2--------------------|--0-------------------------|
    --2--------2---2----------|--2-------------------------|
    --0----------3------------|--3-------------------------|


    E S S S E. Q Q E S S S S E Q Q
    -------------2---2---------|--------------------------|
    -----------3----------3----|-----0-----0----0---------|
    --2--(2)-L-----------------|-------0-L---2-------0----|
    --0------------------------|--2-----------------------|
    ---------------------------|--------------------------|
    ---------------------------|--------------------------|


    E S S S E S H H Q E S S H Q E S S
    ----------------2--------|-------------------------|-------------------------|
    -----------2-------------|-----------------5--5h-7-|-----------------5--5h-7-|
    -------3-L----3----------|--7~--------L----6--6----|--6~--------L----6--6----|
    -----4-------------------|--9~--------L------------|--8~--------L------------|
    -------------------------|-------------------------|-------------------------|
    --2----------------------|-------------------------|-------------------------|


    H Q E S S H Q E S S H Q E S S
    -------------------------|-------------------------|-------------------------|
    -----------------3--3h-5-|-----------------2--2h-3-|-----------------2--2h-3-|
    --6~--------L----4--4----|--4~--------L----2--2h-4-|--4~--------L----2--2h-4-|
    --7~--------L------------|--2~--------L------------|--5~--------L------------|
    -------------------------|-------------------------|-------------------------|
    -------------------------|-------------------------|-------------------------|


    H Q Q E S S S S S S S S S S Q
    ------------2---------|--0------------0-------0------|
    -----------------3----|--0----0-----0-------0--------|
    --2~------------------|--0--0-----2-------4-----4----|
    --4~------------------|--2------4-------5------------|
    ----------------------|------------------------------|
    ----------------------|------------------------------|


    Chorus
    S S S S S S S S Q S S S S Q E. S Q. E
    ------------------2------------|---------------7---------|
    ----------2-----2-2------------|---------------8---------|
    --------3-----3---3------------|-------------7-----------|
    ------2-----2------------------|--0------L---------------|
    ----4--------------------1-2-4-|-------------------------|
    -----------------------2-------|-------------------------|


    S S S S E S S E S S Q E S S S S S S E E Q
    -----9-L--9--9--7-7-7--L-5-5----|-----------------2--------------|
    ----10-L-10-10--8-8-8--L-7-7----|---------2-----2---------(2)----|
    --------------------------------|-------3-----3-----------(3)----|
    --------------------------------|-----4-----4--------(4)--(4)----|
    --------------------------------|--------------------------------|
    --------------------------------|--------------------------------|


    Q Q Q S. T S. T W
    --------0~----2~----3----5----|--7----------------|
    --3~----2~----3~----5----7----|--8----------------|
    --4~--------------------------|-------------------|
    ------------------------------|-------------------|
    ------------------------------|-------------------|
    ------------------------------|-------------------|


    S S S S E S S E S S Q S T T S S S S S S S S E Q
    ----7-L-7-7--5-5-5--L-2-2----|--------0---------0-----0-------|
    ----8-L-8-8--7-7-7--L-3-3----|------0---------0-------0-------|
    -----------------------------|----0-----0---2-------4----4----|
    -----------------------------|--2---------4-------5------5----|
    -----------------------------|--------------------------------|
    -----------------------------|--------------------------------|


    ^
    W E S S S E S Q E E E S S S E S H
    --2----------------|----------------7----------|-----------9--------------|
    --2----------------|-----------7---------------|-------7-L----9-11--------|
    --3----------------|-------7-L----7------7--9--|-----9--------------------|
    --4----------------|-----9---------------------|--8-----------------------|
    --4----------------|---------------------------|--------------------------|
    --2----------------|--7------------------------|--------------------------|


    E S S S E S Q Q E S S S E S H
    ------------7---------------|-----------------7--------|
    -------10-L------10---------|------------7-------------|
    -----9---------9-------9----|--------7-L----7----------|
    --7-------------------------|------9-------------------|
    ----------------------------|--11----------------------|
    ----------------------------|--------------------------|


    E S S S E S Q S S E E S E E S Q Q
    -----------------7------------|----------10---------------|
    ------------8-----------------|-------7--------7----------|
    --------7-L----------------7--|-----7--------7------------|
    ------9--------9------7h-9----|---------------------------|
    --10--------------------------|--9------------------------|
    ------------------------------|---------------------10----|


    E S E E S Q Q E S S S E S H H S S Q.
    ---------------7---------|----------------9--------|------------7p-6-7~------|
    ----------8--------------|-----------7-------------|------------7p-6-7~------|
    -------7-----7-----------|-----7-9-L----9----------|--7~---------------------|
    -----9-------------------|-------------------------|--9~---------------------|
    --7----------------------|--9----------------------|-------------------------|
    --------------------7----|-------------------------|-------------------------|


    H S S Q. H S S Q. H S S Q.
    ------------6-5-6~------|------------5p-4-5~------|------------4-3-4~------|
    ------------7-6-7~------|------------5p-4-5~------|------------5-4-5~------|
    --6~--------------------|--6~---------------------|--4~--------------------|
    --8~--------------------|--7~---------------------|--2~--------------------|
    ------------------------|-------------------------|------------------------|
    ------------------------|-------------------------|------------------------|


    H S S Q. H S S Q. H S S Q.
    ------------3p-2-3~------|------------2-1-2~------|------------------------|
    ------------3p-2-3~------|------------3-2-3~------|------------5-4-5~------|
    --4~---------------------|--2~--------------------|--0~--------4-3-4~------|
    --5~---------------------|--4~--------------------|--2~--------------------|
    -------------------------|------------------------|------------------------|
    -------------------------|------------------------|------------------------|


    S S S S S S S S S S S S Q E S S S S E Q Q
    ------------------2---2--------|----------------2---------|
    ----------2-----2-2---2--------|---------------------3----|
    --------3-----3---3---3--------|-------4-----4------------|
    ------4-----4------------------|-----4-----4--------------|
    ----4--------------------------|--2------2----------------|
    -------------------------------|--------------------------|


    E S S S E S H E S S S E S Q Q
    ------------------2--------|----------------5---------|
    -------------2-------------|-----------2---------2----|
    ---------3-L----3----------|-------2-L----2-----------|
    -----(4)-------------------|-----2--------------------|
    ---------------------------|--0-----------------------|
    --2------------------------|--------------------------|


    E S S S S S S H E S S S E S Q Q
    -----------------0--------|----------------------------|
    --------------------------|-----0-----0------2----3----|
    -------1-L----------------|--0----0-L----(0)-----------|
    -----2--------------------|--0-------------------------|
    --2--------2---2----------|--2-------------------------|
    --0----------3------------|--3-------------------------|


    E S S S E. Q Q E S S S S E Q Q
    -------------2---2---------|--------------------------|
    -----------3----------3----|-----0-----0----0---------|
    --2--(2)-L-----------------|-------0-L---2-------0----|
    --0------------------------|--2-----------------------|
    ---------------------------|--------------------------|
    ---------------------------|--------------------------|


    H S T T S S S S S S
    ---------------------------------|
    -------------------------------7-|
    -----------------------------9---|
    -----------9-11p-9-8-9-11-12-----|
    ---------------------------------|
    ---------------------------------|


    X. X X. S E E S S S X. X X. S X. X X. S X. X X. S S
    ------------------------------------------------------------|
    --7h-8p-7p-5-7--L----5-7-7h-8p-7--5-5h-7p-5--3-3h-5p-3--2-0-|
    -------------------7----------------------------------------|
    ------------------------------------------------------------|
    ------------------------------------------------------------|
    ------------------------------------------------------------|


    |--3--| |---3---| |--3--| |--3--| |--3--| |--3--|
    E E E E E E E E E E E E E E E E E E E E E E
    ---------------------------14--L------|--------------------------------------|
    -----2--5--12--14--12--11-------------|-----7--7--7--5--5--5-----------------|
    --3-----------------------------------|-----------------------7--7--6--4-----|
    ----------------------------------12--|--7--------------------------------7--|
    --------------------------------------|--------------------------------------|
    --------------------------------------|--------------------------------------|


    E S T T S T T S S E E S S S S
    --------------------------0----------|
    -------------------------------------|
    -----7-7h-9-6-7p-6-4-----------------|
    --6------------------7-6-----L-----4-|
    -------------------------------7-L---|
    -------------------------------------|


    T T T T T T T T E E S T T S S S S S S
    -----------------------------------------------|
    -----------------------------------------3-5-7-|
    ----------------------------4-4h-6-3-4-6-------|
    --5h-7p-5p-4h-5-L---L-L--7---------------------|
    -----------------------------------------------|
    -----------------------------------------------|


    |--3--| |--3--|
    E E E E E E E T T T T T T T T T T T T
    --5--5--5--7--5--3--5----------------------------------|
    --7--7--7--8--7--5--7------------------------0h-2h-3-L-|
    ----------------------------------0h-2h-3h-4-----------|
    -----------------------0h-2h-3h-4----------------------|
    -------------------------------------------------------|
    -------------------------------------------------------|


    S S S S S S S S S S S T T S S S S
    ---------3p-0---7p-3p-0-10p-7-------12p-10------|
    --5p-0--------0---------------10-11--------12-L-|
    -------0----------------------------------------|
    ------------------------------------------------|
    ------------------------------------------------|
    ------------------------------------------------|


    |--3--|
    S T T S S E E E T T T T T T T T S S S S
    --2-2h-3-0---0g2--0---------------------------------|
    -----------3---------3--2h-3p-2p-0h-2-L-L-L-3-2-3-5-|
    ----------------------------------------------------|
    ----------------------------------------------------|
    ----------------------------------------------------|
    ----------------------------------------------------|


    S S S S S S S S S S S S S S S S S S S S S S S S S E. Q
    ---------------------------------------|---------------------5-6~---L~----|
    --7p-3---7p-3---7p-3---7p-3---7p-3-----|--5p-2---5p-2---5p-2--------------|
    -------4------4------4------4------4-L-|-------3------3-------------------|
    ---------------------------------------|----------------------------------|
    ---------------------------------------|----------------------------------|
    ---------------------------------------|----------------------------------|


    S S S S S S S S S S S S S S S S S S S S S S S S S E. Q
    ---------------------------------------|------------------3-4~---L~----|
    --5p-2---5p-2---5p-2---5p-2---5p-2-----|--3-0---3-0---3-0--------------|
    -------2------2------2------2------2-L-|------1-----1------------------|
    ---------------------------------------|-------------------------------|
    ---------------------------------------|-------------------------------|
    ---------------------------------------|-------------------------------|


    S S S S S S S S S S S S S S S S S S S S S S S S S E. Q
    ---------------------------------------|-------------------------------|
    ---------------------------------------|--3-----3-----3---5-7~---L~----|
    --7p-4---7p-4---7p-4---7p-4---7p-4-----|----2-----2-----2--------------|
    -------5------5------5------5------5-L-|------4-----4------------------|
    ---------------------------------------|-------------------------------|
    ---------------------------------------|-------------------------------|


    S S S S S S S S S S S S S S S T T S S S S S S S S S S S S S S S S
    ------------------------------------------|----------------------2-----------0-|
    ------------------------------------------|--2-----3p-0---5p-2-----3---3-2-3---|
    --4p-0---4p-0---4p-0---4p-0---4p-0---3h-4-|----3---------------3-----4---------|
    -------2------2------2------2------2------|------4------4----------------------|
    ------------------------------------------|------------------------------------|
    ------------------------------------------|------------------------------------|


    ^ v ^ ^
    S S S S H Q W
    --2-2-2-2---------------|-------------------||
    --3-3-3-3---------------|-------------------||
    --4-4-4-4---------------|-------------------||
    --4-4-4-4---------------|-------------------||
    --2-2-2-2---------------|-------------------||
    ------------------------|-------------------||
  • 24 ก.ค.2549,12:00น.
    เล่นแค่สองตัวนี้ให้เนียน ๆ ก้อโอเคแร้วคับ ดูแร้วอาจงง ๆ ผมก้อปมาจาก guitar pro อ่ะ
  • หูคน
    Guest
  • 10 ส.ค.2549,17:54น.
    เล่นพ่องอะไรไอ่เชี้ย เสียงยังกับกวยออกลูกกกกกกกกกกกกกกกกกกไอ่แสดดดดดดดดดด
  • หมูตอน รูปหล่อม่ายง้อหญิง
    Guest
  • 27 ส.ค.2549,22:27น.
    ห่วยจัง ดีอยู่อย่างเดียว กาต้าตีคอร์ด

    เล่นม่ายเพี้ยนก็จิง(แต่หลังเพี้ยน) เสียงคนร้องเพี้ยน

    เพี้ยนๆๆ....สรุป...ม่ายมีรายดีเลย

    โซโล่..ก็มั่ว.โซโล่ตามโน๊ตเกินไป

    มานต้องโซ่โล่แบบส่ายอารมณ์ สิ..เค้าถึงจาเรียกว่า..ศิลปะแหง่ศิลปิน

ขอเชิญร่วมแสดงความคิดเห็นครับ

คลิกที่รูป เพื่อแทรกรูปลงในข้อความ
  • Member :
    username
    password
  • Not a member :
    name
    email